Song name
# A B C D E F G H I J K L M N O P Q R S T U V W X Y Z

Stone Temple Pilots - Big Bang Baby tab

Intro/Verse

  Em  G G# A   D C# C   B Bb G   A Bb
|-------------------------------------|
|-------------------------------------|
|--------------7-6-5-5--4-3-----------|
|-2-2-5-6-7-7--7-6-5-5--4-3--5-5-7-8--|
|-2-2-5-6-7-7--5-4-3-3--2-1--5-5-7-8--|
|-0-0-3-4-5-5----------------3-3-5-6--|

Bridge
*Sell your soul, sign an autograph...*

  C        A         Em               C        D         Em
|------------------------------------------------------------------------|
|------------------------------------------------------------------------|
|-5-5-555--2-22-222-------------------5-5-555--7-77-777------------------|
|-5-5-555--2-22-222--2-2-2222-22-222--5-5-555--7-77-777--2-2-2222-22-222-|
|-3-3-333--0-00-000--2-2-2222-22-222--3-3-333--5-55-555--2-2-2222-22-222-|
|--------------------0-0-0000-00-000---------------------0-0-0000-00-000-|

Chorus
*Nothing's for free...*
(Guitar 1)

  E        C         E        C         A        D     C
|-----------------------------------------------------------|
|-----------------------------------------------------------|
|-9-9-999--5-55-555--9-9-999--5-55-555-----------7-77--5-55-|
|-9-9-999--5-55-555--9-9-999--5-55-555--7-7-777--7-77--5-55-|
|-7-7-777--3-33-333--7-7-777--3-33-333--7-7-777--5-55--3-33-|
|---------------------------------------5-5-555-------------|

(Guitar 2)

|-7-7-777--7-77-777--7-7-777--7-77-777--5-5-555--5-55--5-55-|
|-9-9-999--8-88-888--9-9-999--8-88-888--5-5-555--7-77--5-55-|
|-9-9-999--9-99-999--9-9-999--9-99-999--5-5-555--7-77--5-55-|
|-----------------------------------------------------------|
|-----------------------------------------------------------|
|-----------------------------------------------------------|
Tap to rate this tab
# A B C D E F G H I J K L M N O P Q R S T U V W X Y Z