Song name
# A B C D E F G H I J K L M N O P Q R S T U V W X Y Z

Stone Temple Pilots - Instate Love Song tab

Transcribed by:

Marc Bertrand
Honours Economics w/ Admin. Opt.
Wilfrid Laurier University
Waterloo, Ontario, Canada
E-mail:  bert4970@mach1.wlu.ca

Interstate Love Song
Stone Temple Pilots
Album:  "Purple"


Intro
       						      E
e|----------------------------------------------------0------------------|
B|----------------------------------------------------0------------------|
G|/6--6-6b7b6-4----------------5-8--8/9-8-6---6\------1------------------|
D|-------------6--6-4\2--4-4/6------------------------2------------------|
A|----------------------------------------------------2------------------|
E|----------------------------------------------------0------------------|

Riff A
                               |  E  B7sus E                    
e|--0-0---0--------0-----------|--0---0-0--0-0--0-x--0-0-0---------------|
B|--0-0---0-------0------------|--0---0-0--0-0--0-x--0-0-0---------------|
G|--6b7b6----2-1h2-------------|--1---2-2--1-1--1-x--1-1-1-----------*---|
D|-----------------------------|--2---4-4--2-2--2-x--2-2-2-----------*---|
A|-----------------------------|--2---0-0--2-2--2-x--2-2-2---------------|
E|-----------------------------|--0---0-0--0-0--0-x--0-0-0---------------|
    P P    		       |      D U  U D  U M  D U D
Verse
   C#m			     C#m(maj7)	        	C#m7
e|--4-4-X-X-X-4-X-4-4-4-4-4---4-4-X-X-X-4-X-4-4-4-4-4---4-4-X-X-X-4-X-4-4-4-4-4-
B|--5-5-X-X-X-5-X-5-5-5-5-5---5-5-X-X-X-5-X-5-5-5-5-5---5-5-X-X-X-5-X-5-5-5-5-5-
G|--6-6-X-X-X-6-X-6-6-6-6-6---5-5-X-X-X-5-X-5-5-5-5-5---4-4-X-X-X-4-X-4-4-4-4-4-
D|--6-6-X-X-X-6-X-6-6-6-6-6---6-6-X-X-X-6-X-6-6-6-6-6---6-6-X-X-X-6-X-6-6-6-6-6-
A|--4-4-------4---4-4-4-4-4---4-4-------4---4-4-4-4-4---4-4-------4---4-4-4-4-4-
E|------------------------------------------------------------------------------

   F#7                       	 A  |  E  B7sus E                    
e|--2-2-X-X-X-2-X-2-2-2-2-2--X-X-0--|--0---0-0--0-0--0-x--0-0-0---------------|
B|--2-2-X-X-X-2-X-2-2-2-2-2--X-X-2--|--0---0-0--0-0--0-x--0-0-0---------------|
G|--3-3-X-X-X-3-X-3-3-3-3-3--X-X-2--|--1---2-2--1-1--1-x--1-1-1-----------*---|
D|--2-2-X-X-X-2-X-2-2-2-2-2--X-X-2--|--2---4-4--2-2--2-x--2-2-2-----------*---|
A|--4-4-X-X-X-4-X-4-4-4-4-4--X-X-0--|--2---0-0--2-2--2-x--2-2-2---------------|
E|--2-2-X-X-X-2-X-2-2-2-2-2---------|--0---0-0--0-0--0-x--0-0-0---------------|
				    |      D U  U D  U M  D U D

Chorus
   C#m E  A  G# A  E  A  G# A  E
e|--4--0--5--4--5--0--5--4--5--0-----|
B|--5--0--5--4--5--0--5--4--5--0-----|
G|--6--1--6--5--6--1--6--5--6--1-----|
D|--6--2--7--6--7--2--7--6--7--2-----|
A|--4--2--7--6--7--2--7--6--7--2-----|
E|-----0--5--4--5--0--5--4--5--0-----|

These are the chords for the Chorus.  The rhythm is pretty easy to figure out, just go by feel.
The intro solo can also be played as a 2nd guitar over the chorus (2x) and it sounds great.

Here's the break down of the song:
Intro
Riff A (2x)
Verse  (2x)
Riff A
Chorus
Riff A (2x)
Verse  +
Chorus
Riff A

+  The second time through the verse, there's a pause and an A chord in standard position is
   played.  The repeated portion at the end is played again.  Listen to the song for the feel.

/  Slide up
\  Slide down
b  Bend
h  Hammer on
P  Pick
D  Downstroke
U  Upstroke
M  Mute with baby finger
X  Hand Mute

*
*  repeat this section once

The song itself is pretty easy once you learn the chords, but it's really fun to play.
I recommend you try it with 2 guitars if possible and use the intro solo over the chorus.
Trust me, it sounds great.  This is the closest version I've heard to the song, but I'm not
positive on the B7sus.  Try it out, tell me what you think.

Questions, comments, requests?
Tap to rate this tab
 
# A B C D E F G H I J K L M N O P Q R S T U V W X Y Z