Song name
# A B C D E F G H I J K L M N O P Q R S T U V W X Y Z

Stone Temple Pilots - Interstate Love Song tab

#

Date: Tue, 30 Dec 1997 21:23:24 -0500 (EST)
From: RZarou 
Subject: Re: Interstate Love Song

Stone Temple Pilots
Interstate Love Song
RZarou@aol.com

Somebody else tabbed this, but i found a different
approach.

B=bend
V=virbrato
S=slide
/=strum

Riff 1
E-------------------*-----------------*-------------------*
B-------------------*---------------1-*-4--4S5S4-2--------*
G--6V----4-4V-S-1V--*------------1----*-------------------*
D-------------------*2-2S3S2--4-------*-------------------*
A-------------------*-----------------*-------------------*
E-------------------*-----------------*-------------------*

Riff 2
E-------------0-----*--0--------------*-------------------*
B--3--2--0----------*0----------------*-------------------*
G-----------2---1-2-*-----------------*-------------------*
D-------------------*----2--2--2-2--2-*-2-2-2--2--2--2-2-2*
A-------------------*-----------------*-------------------*
E-------------------*----0--0--0-0--0-*-0-0-0--0--0--2-0-4*

Riff 3
E---------------*-------------------*
B---------------*-------------------*
G---------------*-------------------*
D--2--2--2-2--2-*-2-2-2--2--2--2-2-2*
A---------------*-------------------*
E--0--0--0-0--0-*-0-0-0--0--0--2-0-4*

Riff 4 (get rhythm from the CD)
E-------------------*-----------------*-------------------*
B-------------------*-----------------*-------------------*
G-------------------*-----------------*-------------------*
D--2///////-2///////*2///////-2///////*-7-----------------*
A--4///////-3///////*2///////-1///////*-7-----------------*
E--4///////-4///////*4///////-4///////*-5-----------------*

Riff 5
E-------------------*-----------------*-------------------*
B-------------------*-----------------*-------------------*
G-------------------*-----------------*-------------------*
D-11///////-9///////*7///////-6///////*-11///////-9///////*
A-11///////-9///////*7///////-6///////*-11///////-9///////*
E--9///////-7///////*5///////-4///////*--9///////-7///////*

E------------------*------------------*
B------------------*------------------*
G------------------*------------------*
D-7///////-6///////*-7----------------*
A-7///////-6///////*-7----------------*
E-5///////-4///////*-5----------------*

Order of Appearance
Riff1
Riff2
Riff2
Riff4
Riff3
Riff4
Riff3
Riff2
Riff5
Riff2
Riff2
Riff4
Riff3
Riff3
Riff5
Riff2

Lyrics:
Waiting On a Sunday Afternoon
For What I Read Between The Lines
Your Lies

Feelin Like A Hand In Rusted Shame
So Do You Laugh Or Does It Cry?
Reply?

Leavin On A Southern Train
Only Yesterday You Lied,
Promises Of What I seemed To Be
Only Watched The Time Go By!
All Of These Things You Said To Me

Breathing Is The Hardest Thing
To Do. With All I've Said And
All That's Dead For You,
You Lied- Good Bye
Tap to rate this tab
 
# A B C D E F G H I J K L M N O P Q R S T U V W X Y Z