Song name
# A B C D E F G H I J K L M N O P Q R S T U V W X Y Z

Stone Temple Pilots - No Memory tab

Help us improve GuitareTab! Take a short survey!
This part is repeated through  all of the song

 e|--------------------------------------------------------------------- ------------|
 B|----------------0h1---------------------1---------------------2s3-----------------|
 G|------------2-----------2------------0-----0---------------4-------4--------------|
 D|--------2------------------2-----2------------2---------4------------4------------|
 A|----0--------------------------3------------------3---2---------------------------|
 E|----------------------------------------------------------------------------------|


e|--------------------------------------------------------------------------------------0--|
B|--------------------------------------------------------------------------0h1--1---0-----|
G|----------4-----------------2-----------------7-------------------0----0-----0---0-------|
D|--------5---4------------3---2-----------8-----7-------------2-------2-----2---2---------|
A|------5--------5s3----3-------3s8---8----------8s2----2----------2-----2---2-------------|
E|---3------------------1---------------6-------------------0------------------------------|

s=slide
h=hammer
Related for No Memory tab