Song name
# A B C D E F G H I J K L M N O P Q R S T U V W X Y Z

Stone Temple Pilots - Where The River Goes tab

Stone Temple Pilots
Where the River Goes: The solos
tabbed by jjhand

Opening Solo (0:16, with wah)
e|-----------------------|-----------------------------|--------------------|--------|
B|-15b17~----15b17r15-12-|---------------------14------|-12-----------------|-15b17~-|
G|-----------------------|-14b16r15b16---14-14-14-12~--|-12--------12-14-12-|--------|
D|-----------------------|-----------------------------|--------/14---------|--------|
A|-----------------------|-----------------------------|--------------------|--------|
E|-----------------------|-----------------------------|--------------------|--------|





Main Solo (5:27)
e|------------------------------------|------------17-16b17r16-14-----|
B|------------------------12b13-------|------15-17----------------17--|
G|-12b13--------14b16-----------------|--/16--------------------------|
D|------14-14~-------14-14-----14-14~-|-------------------------------|
A|------------------------------------|-------------------------------|
E|------------------------------------|-------------------------------|

e|-----------------------------------------|--------------------------------|
B|-15--------15b17-----------------12------|--------------------------------|
G|---16p14h16-------14b15r14-12------------|--------------------------------|
D|------------------------------14----14~--|-14b16~---b16-b16-b16~~-----5-5-|
A|-----------------------------------------|--------------------------7-----|
E|-----------------------------------------|--------------------------------|


e|-----------------------|----------------12---10-9---------|
B|-----------------------|------------9-12--12------8~------|
G|-----------------------|--------7/9-------------------/16-|
D|-----------------------|----------------------------------|
A|-7~~~\--2-0------------|-/7--10---------------------------|
E|------------3b4r3~~----|----------------------------------|


e|----------------------------------|-------------17b18-17b19--b19~~~~~~------|
B|-15----17------17----19b21r19~-17-|-19b21-19b21-----------------------------|
G|----16----18------18--------------|-----------------------------------------|
D|----------------------------------|-----------------------------------------|
A|----------------------------------|-----------------------------------------|
E|----------------------------------|-----------------------------------------|





Outro/Ending Solo (6:57)- Thsi solo may be down an octave, but using a 
octavia or similar fuzz octave pedal. I tabbed the notes as I heard them.

e|--------------------------------------------------|
B|-12h13p12-10-12--10-------------------------------|
G|-------------------12-11h12p11-------11/12-12/14--|
D|------------------------------13-12---------------|
A|--------------------------------------------------|
E|--------------------------------------------------|


e|---------14-15-17~~---18-17---------|----------------------------------|
B|----------------------------19-18~--|-(18~)-17-------------------------|
G|-14---------------------------------|-----------17b19--b19--b19--b19---|
D|------------------------------------|----------------------------------|
A|------------------------------------|----------------------------------|
E|------------------------------------|----------------------------------|


e|----------------------------|-------------------------------------------12-13-|
B|----------------------------|-12h13p12-10-12--10------------------------------|
G|-(b19)---b19r18--(17)b18~---|-------------------12-11h12p11-12-11-12-9--------|
D|----------------------------|-------------------------------------------------|
A|----------------------------|-------------------------------------------------|
E|----------------------------|-------------------------------------------------|



e|-14~---14-15-17~--15-17-18~-|-(18)--17h18p17-15--17-14--15-14------------|
B|----------------------------|---------------------------------15--17-14--|
G|----------------------------|--------------------------------------------|
D|----------------------------|--------------------------------------------|
A|----------------------------|--------------------------------------------|
E|----------------------------|--------------------------------------------|


e|-------13-----------------------|----------------------------------17--18--15-|
B|-(14)-----15---17-14~----10tr11-|--------10tr11--------------14-15---15-------|
G|--------------------------------|-10tr11--------10tr11-14-15------------------|
D|--------------------------------|---------------------------------------------|
A|--------------------------------|---------------------------------------------|
E|--------------------------------|---------------------------------------------|


e|---------------------------------15-|-15--------------------15---------------------|
B|-18--17-15-----------------14-17----|----18-17-----15-17-18----18-17-18-17-18-17---|
G|-----------18-15-14--14-15----------|-----------18------------------------------14-|
D|------------------------------------|----------------------------------------------|
A|------------------------------------|----------------------------------------------|
E|------------------------------------|----------------------------------------------|


e|-18~---17-15-15~---20--|----------------------------------------------|
B|-----------------------|----------------------------------------------|
G|-----------------------|----------------------------------------------|
D|-----------------------|----------------------------------------------|
A|-----------------------|----------------------------------------------|
E|-----------------------|----------------------------------------------|

I'll finish this soon 
Tap to rate this tab
# A B C D E F G H I J K L M N O P Q R S T U V W X Y Z