Song name
# A B C D E F G H I J K L M N O P Q R S T U V W X Y Z

Stone Temple Pilots - Sin tab

STP-Sin

ok this is a good song off of core, the stp debut cd. anyway, i have yet to see an
accurate tab for it. i guarantee this one will be as close as you can get to playing
it like dean deleo and little or NO errors! WOW! actually the only part im confused
on is the acoustic part, so if u have ur own corrections for that, im all ears (eyes).
enjoy!

thanks,
~the rag

intro

guitar 1
-----0-------------------------0------------------|
---0---0---------------------0---0----------------|
-3-------3-4-3-1~~~~~~~--3-3-------3-4-3-1~~~~~~~-|
--------------------------------------------------|
--------------------------------------------------|
--------------------------------------------------|

guitar 2
---0~~~~~~~--------------0-0~~~~~~~~----------|
---0~~~~~~~--------------0-0~~~~~~~~----------|
---1~~~~~~~--------------1-1~~~~~~~~----------|
---2~~~~~~~--------------2-2~~~~~~~~----------|
---2~~~~~~~--------------2-2~~~~~~~~----------|
---0~~~~~~~--------------0-0~~~~~~~~----------|


verse  (rhythm right below this)
   _______  _______   ___
   | | | |  | | | |   | |
------------------------------|
------------------------------|
---3--------1-----------------|
---2--------2-----------------|
---2--------2-----------------|
---0--------0-----------------|


chorus

guitar 1
---------------------------------------------------------|
---------------------------------------------------------|
---------------------------------------------------------|
---------------------------------------------------------|
----0h2--5p0---0----0h2--5p0-----0h2--5p0-----0h2--5p0---|
--3---------------------------1-------------3------------|

guitar 2
--3------------0--------------1-------------3------------|
--3------------2--------------1-------------3------------|
--4------------2--------------2-------------4------------|
--5------------2--------------3-------------5------------|
--5------------0--------------3-------------5------------|
--3---------------------------1-------------3------------|

bridge (2:21 in the song)   then this part at the end of the bridge
 ____  ____  ____  _ _    _   ___  _      ____    _
 |  |  |  |  |  |  | |    |   | |  |      |  |    |
-7--x--7--7--x--7--7-7-|--6--------6~~----4--4----4~~----|
-8--x--8--7--x--7--7-7-|--7--------6~~----5--5----4~~----|
-7--x--7--7--x--7--7-7-|--6--------6~~----4--4----4`~----|
-9--x--9--9--x--9--9-9-|--8--------8~~----6--6----6~~----|
-----------------------|--9--------9~~----7--7----7~~----|
-----------------------|---------------------------------|


acoustic part

ok this is kinda hard to hear, so any other tab is just as good as mine right here.
its somewhere in this area, so have some fun with it and check the song for rhythm
and picking. be advised that i totally guessed.

-3--3----3-3---3---3-3--3----3-3--|--0--0--0--0--0--------|
-3--3----3-3-----3-3-3--3----3-3--|--0--2--0--2--3--------|
-0--0--0-----0-----0-0--0--0---0--|--0--0--0--0--0--------|
----------------------------------|-----------------------|
----------------------------------|-----------------------|
----------------------------------|-----------------------|

GUITAR SOLO (the fun part)

the bridge from 2:21 in the song is the rhythm guitar for this solo.

yes yes here it is! the ACCURATE solo...

---------------------------------------------------------------------|
--------------------------------------------------------10b12--8/7~~-|
-------------------------------------------------7-------------------|
----------------------------------5-----7-----9-----9----------------|
-5b7r5b7r5b7r5b7~--------------7-----7-----7-------------------------|
------------------3b5r3b53~~~~---------------------------------------|

--------------12-15-14------------------------------------15-14-------------|
--7b8--12h15-----------15b17-------17--15-17-------15b17--------------15b17-|
-----------------------------14b6------------14b16--------------14-12-------|
----------------------------------------------------------------------------|
----------------------------------------------------------------------------|
----------------------------------------------------------------------------|

----------------------------------------------------------------------------|
-------------------------12-13-15-13-11-----12b14--12-10-12-10--9slowb10~~~-|
--9b11r9-------11-12-14------------------14---------------------------------|
-----------14---------------------------------------------------------------|
----------------------------------------------------------------------------|
----------------------------------------------------------------------------|

outro
------------|
------------|
--3-3~~~~~~-|
------------|
------------|
------------|

order of song:
intro x 2
verse x 12
chorus x 4
verse x 12
chorus x 4
bridge x 7
end of bridge x 1
intro x 2
verse x 8
chorus x 3
acoustic part x 4
solo x 1
bridge (under solo) x 7
end of bridge (under solo) x 1
intro x 2
outro x 1

enjoy this 100% accurate fofo
Tap to rate this tab
 
# A B C D E F G H I J K L M N O P Q R S T U V W X Y Z