Song name
# A B C D E F G H I J K L M N O P Q R S T U V W X Y Z

Stone Temple Pilots - Down tab

Stone Temple Pilots - "Down" Solo Tab
From the album "No. 4"
tabbed by jjhand

This one was requested since the current tab has a sloppy solo in it.
I believe this is at least 99% correct, but let me know if you have a suggestion.
Rate this as well please, and check out my other tabs.

Solo (With Wah-Wah):
e|--------10----------------------------13-----|
B|-13b------13p10-10h13------------------------|
G|---------------------12p10--12--12b13____r12-|
D|--------------------------12--12-------------|
A|---------------------------------------------|
D|---------------------------------------------|

e|--------------------------------------------------|------------------8-------------|
B|-----------------------------------------------13-|-------8---------------10-------|
G|-12b13-12b13r12p10---10----10-12b13-10~~--12b13---|-10b12---10b12-10---10----------|
D|------------------12----12------------------------|--------------------------------|
A|--------------------------------------------------|--------------------------11v~~-|
D|--------------------------------------------------|--------------------------------|
   last note with "v~~ has pitch lowered by trem bar then release


e|--------------------------------13b14~~~------|
B|-12------------12------12--12h15----------15--|
G|-14b16---14b16---14b16------------------------|
D|----------------------------------------------|
A|----------------------------------------------|
D|----------------------------------------------|

e|-17b20---17-16-15-13----17-15-13b14-----------------|
B|------------------------------------15-----15b17~---|
G|---------------------0-----------------0-0----------|
D|----------------------------------------------------|
A|----------------------------------------------------|
D|----------------------------------------------------|

e|--------------13b15r13b15r13----------------------------------|
B|-(b17~)----15--------------------10------------------10-------|
G|----------------------------12b14--12p10-----10-12b14--12p10--|
D|----------------------------------------10h12-----------------|
A|--------------------------------------------------------------|
D|--------------------------------------------------------------|

e|-------10-----------------13qb-10------13qb-10------13qb-10------13qb-|
B|-13b15----13p10--10h13-----------13p10--------13p10--------13p10------|
G|---------------12-----10----------------------------------------------|
D|------------------------12--------------------------------------------|
A|----------------------------------------------------------------------|
D|----------------------------------------------------------------------|

e|--------------------------------------|
B|-------------------10--13b15~~~~~-----|
G|-12b13r12b13r12-p10-------------------|
D|--------------------------------------|
A|--------------------------------------|
D|--------------------------------------|


Technique-wise, this is probably one of Dean's hardest solos. Enjoy.

Key:
| /  slide up
| \  slide down
| h  hammer-on
| p  pull-off
| ~  vibrato
| *  harmonic
| x  Mute note (or rake)
| b  bend (bends with vibrato bar indicated)
| r  release bend
Tap to rate this tab
# A B C D E F G H I J K L M N O P Q R S T U V W X Y Z