Song name
# A B C D E F G H I J K L M N O P Q R S T U V W X Y Z

Stone Temple Pilots - Tumble In The Rough tab

Standard Tuning
Slide Up- /
Slide Down- \

Intro- 00:00- 00:07, 3:08- 3:18---|
e---------------------------------|
B---------------------------------|
G---------------------------------|  Reapeat as many times as you have to
D-2-2-2-2-2-2-2-2-2-2-2-2-2-2-2-2-| for this part
A-x-x-x-x-x-x-x-x-x-x-x-x-x-x-x-x-|
E-3-3-3-3-3-3-3-3-3-3-3-3-3-3-3-3-|

Second half of the Intro- 00:07- 00:21, 00:36- 00:49, 00:56- 1:11, 1:24- 1:38, 1:45- 1:59, 2:56- 3:08--|
e------------------------------------------------------------------------------------------------------|
B------------------------------------------------------------------------------------------------------|
G------------------------------------------------------------------------------------------------------|
D-3-3-3-8-8-8-8-x-x-x-x-x-x-x-5-5-5-5-8-8-8-8---------------5-5-5-5-8-8-8-8----------------------------|
A-5-5-5-8-8-8-8-x-x-x-x-x-x-x-5-5-5-5-8-8-8-8---------------5-5-5-5-8-8-8-8----------------------------|
E-3-3-3-6-6-6-6-x-x-x-x-x-x-x-3-3-3-3-6-6-6-6-/12\1/15-x-12\3-3-3-3-6-6-6-6----------------------------|

e-------------------------------|
B-------------------------------|
G-------------------------------|
D-x-x-x-x-x-x-x-5-5-5-5-8-8-8-8-|
A-x-x-x-x-x-x-x-5-5-5-5-8-8-8-8-|
E-x-x-x-x-x-x-x-3-3-3-3-6-6-6-6-|

Verse- 00:21- 00:35,  1:11- 01:25, 2:28- 2:42

e-------------------------------------|
B-------------------------------------|
G-4-4---4-4-4---4-4-4---4-4-4---4-4-4-|
D-5-5-x-5-5-5-x-5-5-5-x-5-5-5-x-5-5-5-| Reapeat as many times as you need to
A-5-5-x-5-5-5-x-5-5-5-x-5-5-5-x-5-5-5-|
E-3-3-x-3-3-3-x-3-3-3-x-3-3-3-x-3-3-3-|

Chorus 1:38- 1:46, 2:42- 2:55

e-----------------------------------------------|
B-----------------------------------------------|
G-----------------------------------------------|
D-5-5-5-5-5-5-5-5-5-5-5-5-8-8-8-8-8-8-8-8-8-8-8-|
A-5-5-5-5-5-5-5-5-5-5-5-5-8-8-8-8-8-8-8-8-8-8-8-|
E-3-3-3-3-3-3-3-3-3-3-3-3-6-6-6-6-6-6-6-6-6-6-6-|

Bridge 2:00- 2:14

e------------------------------|
B------------------------------|
G----------------------6-6-6-6-|
D-6--6---4--4----------6-6-6-6-|
A-6--6-8-4--4-6-2--2---4-4-4-4-|
E-4--4---2--2---0--0-0---------|

Solo 2:14- 2:27 I can't figure it out, so just play the second half of the intro or 
it out yourself
Tap to rate this tab
 
# A B C D E F G H I J K L M N O P Q R S T U V W X Y Z