Song name
# A B C D E F G H I J K L M N O P Q R S T U V W X Y Z

Stone Temple Pilots - Transmissions From A Lonely Room tab

Help us improve GuitareTab! Take a short survey!
STP - "Transmissions From a Lonely Room"
From "Shangri Laa De Da" Album
standard Tuning
tabbed by jjhand

This song has some sitar and is hard to hear some of the guitar parts, but
here is my stab at it. Please rate/comment.

Intro:
   Two Guitars: 
e|----------2-------------2----|
B|-4--0--4--2----4--0--4--2----|  if its too hard to play all strings
G|-4--2--4--3----4--2--4--3----|  play the bottom 2 notes at least.
D|-4--2--4--4----4--2--4--4----|  
A|-----------------------------|
E|-----------------------------|

Verse- played by Sitar
e|----------------------------------|
B|-2-------2-------2-------2--------|
G|-----2-------2-------2-------2----| repeat until chorus
D|-2-------1-------2-------1------1-|
A|----------------------------------|
E|----------------------------------|


Chorus - may be 2 guitars
e|------------------|-----------------|
B|-5--------5-------|-5-------5-------|
G|-4--------4-------|-4-------4-------|
D|------------------|-----------------|
A|------------------|-0-------2-------|
E|-0/2------2-------|-----------------|


Solo 1 (1:10) - last few notes sound like a second overdub guitar
e|-----------------------|-----------------------------|-----------------------|
B|-----------------------|-----------------------------|-----------------------|
G|-----------------------|-11-13-----------------------|-----------------------|
D|--13b14-------14p13p11-|-------14---13------14\13p11-|-13p11-------------9-9-||
A|-----------------------|-----------------------------|-----------------------|
E|-----------------------|-----------------------------|-----------------------|

e|------------------------------------------|---------------------------------|
B|------------------------------------------|---------------------------------|
G|--------------------------------------9-9-|-11b13r12b13~~~~-----------------|
D|-11p9\7---7-----------------------/11-----|---------------------------------|
A|--------9---9p7---7---2-------------------|---------------------------------|
E|----------------9---9---5p2-5-2-----------|---------------------------------|


Play Verse again

Play Chorus

Break - Play Sitar part

Play Chorus

Ending - Play 




| /  slide up
| \  slide down
| h  hammer-on
| p  pull-off
| ~  vibrato
| +  harmonic
| x  Mute note
Related for Transmissions From A Lonely Room tab