Song name
# A B C D E F G H I J K L M N O P Q R S T U V W X Y Z

Stone Temple Pilots - Samba Nova tab

STP - "Samba Nova"
Unreleased Track
Standard Tuning
tabbed by jjhand



Acoustic Intro - play 2x
    Asus4                              Bbsus4
e|--5------5-5-5--|-5---5---5---5-5--|-6-------6-6-6--|-6---6---6---6-6--|
B|--5------5-5-5--|-5---5---5---5-5--|-6-------6-6-6--|-6---6---6---6-6--|
G|--7------7-7-7--|-7---7---7---7-7--|-8-------8-8-8--|-8---8---8---8-8--|
D|--7------7-7-7--|-7---7---7---7-7--|-8-------8-8-8--|-8---8---8---8-8--|
A|----------------|------------------|----------------|------------------|
E|----------------|------------------|----------------|------------------|




Verse- Chords implied by Bass & Guitar, second part added at **

   Bm7 add4        E7                 Am **           Am7
e|---------------|------------------|-5------5-5-5--|-5---5---5---5--5-|
B|-5-----5---5---|-5---5---5--5-5---|-5------5-5-5--|-5---5---5---5--5-|
G|-7-----7---7---|-7---7---7--7-7---|-5------5-5-5--|-5---5---5---5--5-|
D|-7-----7---7---|-6---6---6--6-6---|-7------7-7-7--|-5---5---5---5--5-|
A|---------------|------------------|---------------|------------------|
E|---------------|------------------|---------------|------------------|

1) "Hard time is never long enough to keep my head afloat, and my feet are stuck in the" 
2) "Trying hard was never good enough, I've got a lot to learn just walking out of the"



   Am                                                 G
e|-5-----5-5-5--5-|-5-----5--5-5---|-5-----5--5---5-|-3------3--3--3--|
B|-5-----5-5-5--5-|-5-----5--5-5---|-5-----5--5---5-|-3------3--3--3--|
G|-5-----5-5-5--5-|-5-----5--5-5---|-5-----5--5---5-|-4------4--4--4--|
D|----------------|----------------|----------------|-----------------|
A|----------------|----------------|----------------|-----------------|
E|----------------|----------------|----------------|-----------------|

1) "mud_________ again.          I'm getting old and my money's    been"
2) "door________ again.          I'm torn in 2 and I don't see      the"

Verse Ending 1:
   Cmaj7
e|-3------3-3-3---3-|-3-3-----3--3--3---|
B|-5------5-5-5---5-|-5-5-----5--5--5---|
G|-4------4-4-4---4-|-4-4-----4--4--4---|  repeat verse and go to 2nd ending
D|-5------5-5-5---5-|-5-5-----5--5--5---|
A|-3------3-3-3---3-|-3-3-----3--3--3---|
E|------------------|-------------------|
  
  "spent." 




Electric Guitar (** second part, from above)
e|-------0---------|-------0---------|-------0---------|-------0---------|
B|-----0-----0-----|-----0-----0-----|-----0-----0-----|-----0-----0-----|
G|---5---------5---|---5---------5---|---5---------5---|---5---------5---|
D|-7---------------|-5---------------|-4---------------|-3---------------|
A|-----------------|-----------------|-----------------|-----------------|
E|-----------------|-----------------|-----------------|-----------------|





2nd Ending of Verse (1:00) - Chorus Part

  Lead Elec. (after repeat, ending is shown)
e|----------------|-------------------|--------------|-------------------|  |-----
B|----------------|-10---10---9-------|--------------|------------------o|  |-----
G|-6------------6-|---------------9---|----------7---|-9---7-------7-----|  |-7/9-
D|-----7----------|-------------------|---10---------|---------7---------|  |-----
A|----------------|-------------------|--------------|------------------o|  |-----
E|----------------|-------------------|--------------|-------------------|  |-----
 |
 |Acoustic (after repeat, play Verse again)
e|-5------5-5-5---|-5----5----5--5-5--|-3------3---3-|-2---2---2---2-----|
B|-5------5-5-5---|-5----5----5--5-5--|-5------5---5-|-3---3---3---3----o|
G|-6------6-6-6---|-6----6----6--6-6--|-5------5---5-|-2---2---2---2-----|
D|-7------7-7-7---|-7----7----7--7-7--|-5------5---5-|-0---0---0---0-----|
A|----------------|-------------------|-3------3---3-|------------------o|
E|----------------|-------------------|--------------|-------------------|

1)  "end.  You can always buy a new lie, when yours is finally over"
2)  "Either way you'll find a new life,  when yours is finally over"  



Play Verse again

Verse 2 Lyrics: 
"Don't think I ever changed at all, my dear 
And you'll see when I'm right and here's when I'm wrong, but still 
I kick myself in the face once again"

"Sometimes I think that I can kill the world. 
If just for a day but I'd just be stuck with myself again
And I don't think I wanna be my only friend"




Play Chorus again w/ same lyrics




Solo (w/ reverb, delay)
e|---------------|---------------|--------------|-------------|--------------|
B|---------------|-----9---------|--------------|----7--------|--------------|
G|-/10~----------|-/10---10-9~---|-/8~----------|-/8---8-7~---|-/6-----------|
D|---------------|---------------|--------------|-------------|--------------|
A|---------------|---------------|--------------|-------------|--------------|
E|---------------|---------------|--------------|-------------|--------------|

e|---------------|---------------|--------------|
B|-----------7\--|---------------|--------------|
G|-7-----------2-|-/6-----/6-6-6-|-6\4----------|
D|---------------|---------------|--------------|
A|---------------|---------------|--------------|
E|---------------|---------------|--------------|



Play Chorus 3x and fade out



key
| /  slide up
| \  slide down
| h  hammer-on
| p  pull-off
| ~  vibrato
| +  harmonic
| x  Mute note
Tap to rate this tab
# A B C D E F G H I J K L M N O P Q R S T U V W X Y Z