Song name
# A B C D E F G H I J K L M N O P Q R S T U V W X Y Z

Stone Temple Pilots - Art School Girl tab

--------------PLEASE NOTE--------------------------------#
#This file is the author's own work and represents their interpretation of the#
#song. You may only use this file for private study, scholarship, or research.#
#-----------------------------------------------------------------------------#
#-- File created with Instab - http://www.pconline.com/~smcarey/instab.html --#
#-----------------------------------------------------------------------------#

Author/Artist: Stone Temple Pilots
Title: Art School Girl
Transcribed by: Saverain
/ slide up
\ slide down
b bend
r  release bend
hint: Sounds better if you palm mute the xxx's when your strum them.

----------|-------------------------------------------------------------------|
----------|-------------------------------------------------------------------|
--------x-|-4/6---x-4-4-4-x-4vv4-x-4-4--4vv-4/6---x-4-4-4-x-4vv4-x-4-4--4vv---|
--------x-|-x-----x-x-x-x-x-x--x-x-x-x------x-----x-x-x-x-x-x--x-x-x-x--x-----|
--------x-|-7/9---x-7-7-7-x-6--6-x-7-7------7/9---x-7-7-7-x-6--6-x-7-7--7-----|
----------|-------------------------------------------------------------------|
   Intro

-------------------------------------------------------------0--|-------------|
-------------------------------------------------------------5--|-------------|
-4/6---x-4-4-4-x-4--x-x-4-4--4vv-4/6---x-4-4-4-x-4--4-x-4-4--4--|-------------|
-x-----x-x-x-x-x-x--x-x-x-x--x---x-----x-x-x-x-x-x--x-x-x-x--x--|-------------|
-7/9---x-7-7-7-x-6--x-x-7-7--7---7/9---x-7-7-7-x-6--6-x-7-7--7--|-------------|
----------------------------------------------------------------|-------------|


-----------|------------------------------------------------------------------|
-----------|-----------------------------5------------------------------------|
-----------|-4/6---x-4-4-4-x-4--x-x-4-4--x--4/6---x-4-4-4-x-4--4-x-4-4--4--4/-|
-----------|-x-----x-x-x-x-x-x--x-x-x-x--x--x-----x-x-x-x-x-x--x-x-x-x--x--x--|
-----------|-7/9---x-7-7-7-x-6--x-x-7-7--7--7/9---x-7-7-7-x-6--6-x-7-7--6--7/-|
-----------|------------------------------------------------------------------|
   Verse

--------------------------------------------------------------------------|---|
--------------------------------------------------------------------------|---|
-6---x-x-4-4--4--4-x-4-4--4--4/6---x-4-4-4-x-4--4-x-4-4-x-x-x-x---x-x-x-x-|---|
-----x-x-x-x--x--x-x-x-x--x--x-----x-x-x-x-x-x--x-x-x-x-x-x-x-x---x-x-x-x-|---|
-9---x-x-7-7--6--6-x-7-7--7--7/9---x-7-7-7-x-6--6-x-7-7-x-x-x-x-7-x-x-x-x-|---|
--------------------------------------------------------------------------|---|


-----------|--------------------------------|--|------------------------------|
-----------|--------------------------------|--|------------------------------|
-----------|-4/6---x-4-4-4-x-4--4-x-4-4--4--|--|------------------------------|
-----------|-x-----x-x-x-x-x-x--x-x-x-x--x--|3x|------------------------------|
-----------|-7/9---x-7-7-7-x-6--6-x-7-7--7--|--|------------------------------|
-----------|--------------------------------|--|------------------------------|
  Verse Riff

-----------|-----------------------------|------------------------------------|
-----------|-----------------------------|------------------------------------|
-----------|-4/6---x-4-4-4-x-4--4-4-4-4--|------------------------------------|
-----------|-x-----x-x-x-x-x-x--x-x-x-x--|------------------------------------|
-----------|-7/9---x-7-7-7-x-6--6-6-6-6--|------------------------------------|
-----------|-----------------------------|------------------------------------|


-----------------------|-----------------|------------------------------------|
-----------------------|-----------------|------------------------------------|
-----------------------|-----------------|------------------------------------|
-----------------------|-----------------|------------------------------------|
-----------------------|-4-4-4-7---2-4-2-|------------------------------------|
-----------------------|-2-2-2-5---0-2-0-|------------------------------------|
   G1      Chorus fuzz

-----------|-------|-------|-0--------------------|------|-0-----------------|
-----------|-------|-------|-0------------5-------|------|-1-----------------|
-----------|-------|-------|-1------------4-------|------|-0-----------x-x-x-|
-----------|-------|-------|-0------------4-------|------|-0--------4--x-x-x-|
-----------|-------|-------|--------------2-------|------|----------2--x-x-x-|
-----------|-------|-------|----------------------|------|-------------x-x-x-|
             verse   Chorus  Interlude             Chorus

---|--------|-0------------------------------------|--------------------------|
---|--------|-0---------5------------0-0-3-3-3b-\--|--------------------------|
---|--------|-1---------4-----4------1-1-x-x-x-----|--------------------------|
---|--------|-0---------x-----4----2-2-2-2-2-2-----|--------------------------|
---|--------|-----------x----------2-2-2-2-2-2-----|--------------------------|
---|--------|-----------x----------0-0-0-0-0-0-----|--------------------------|
     Chorus

------------|-19b--19b---------19b--19b---------------------------12-14-------|
------------|-----------------------------------17-19b--19-17-----------14-10-|
------------|------------18--------------18--18---------------18--------------|
------------|-----------------------------------------------------------------|
------------|-----------------------------------------------------------------|
------------|-----------------------------------------------------------------|
   G2 solo   G1 chorus riff

-----------------------------------------------5h8-8h9-8h9-8h9p8--------------|
--vv-------10h13-------------------------------------------------10p7---------|
-------------------------------------7b-----6-------------------------9p6-----|
--------11--------9b-----9----7-------------------------------------------9p7-|
------------------------------------------------------------------------------|
------------------------------------------------------------------------------|


--------------------|---------------------------------------------------------|
--------------------|---------------------------------------------------------|
--------2b----r-\---|---------------------------------------------------------|
--------------------|---------------------------------------------------------|
-9p7----------------|---------------------------------------------------------|
-----9--------------|---------------------------------------------------------|


--------|-------|-------|-0----------|----------------------------------------|
--------|-------|-------|-0----------|----------------------------------------|
--------|-------|-------|-1----------|----------------------------------------|
--------|-------|-------|-0----------|----------------------------------------|
--------|-------|-------|------------|----------------------------------------|
--------|-------|-------|------------|----------------------------------------|
          verse   chorus
Tap to rate this tab
# A B C D E F G H I J K L M N O P Q R S T U V W X Y Z