Song name
# A B C D E F G H I J K L M N O P Q R S T U V W X Y Z

Stone Temple Pilots - Big Bang Baby tab

#----------------------------------PLEASE NOTE--------------------------------#
#This file is the author's own work and represents their interpretation of the#
#song. You may only use this file for private study, scholarship, or research.#
#-----------------------------------------------------------------------------#
#-- File created with Instab - http://www.pconline.com/~smcarey/instab.html --#
#-----------------------------------------------------------------------------#

Author/Artist: Stone Temple Pilots
Title: Big Bang Baby
Transcribed by: Saverain
Email: saverain@yahoo.com

v strum down
^ strum up
/ slide up
\ slide down
b bend
r release bend
h hammer on
p pull off
corrected
Hint:  The intro is strummed near the 20th fret for a little deeper sound.
Sorry I did not show how many times everything is played and in order
I figured you all figure that out you own.

----------|------------------------------------------------|------------------|
----------|------------------------------------------------|------------------|
----------|------------------------------------------------|------------------|
----------|-------------------7--6--5--5--4--3--------7--9-|------------------|
----------|-2--2--5--6--7--7--5--4--3--3--2--1--5--5--7--7-|------------------|
----------|-0--0--3--4--5--5--0--0--------------3--3--5--0-|------------------|
   verse

----------|-------------------------------------------------|-----------------|
----------|-------------------------------------------------|-----------------|
----------|-------------------------------------------------|-----------------|
----------|-------------------7--6--5--5--4--3--5--8-----5--|-----------------|
----------|-2--2--5--6--7--7--5--4--3--3--2--1--3--6--7--3--|-----------------|
----------|-0--0--3--4--5--5--0--0--0--0--------0-----5--0--|-----------------|
   verse out

----------------|----------------------------------------------0------0-------|
----------------|----------------------------------------------0------0-------|
----------------|--5--5--5--5--5--5--2----2--2--2--2--2--2--2--1b2r1--1b2r1---|
----------------|--5--5--5--5--5--5--2----2--2--2--2--2--2--2-----------------|
----------------|--3--3--3--3--3--3--0----0--0--0--0--0--0--0-----------------|
----------------|-------------------------------------------------------------|
          Chorus>> v

-0------0------0------0------0-----------------------------------------------|
-0------0------0------0------0-----0---0-------------------------------------|
-1b2r1--1b2r1--1b2r1--1b2r1--1b2r1-1h2-1-5---5--5--5--5--5--5--7----7--7--7--|
-----------------------------------------5---5--5--5--5--5--5--7----7--7--7--|
-----------------------------------------3---3--3--3--3--3--3--5----5--5--5--|
-----------------------------------------------------------------------------|


--------------0----0----0---0----0---0----0----0---0----0-----|----------------|
--------------0----0----0---0----0---0----0----0---0----0-----|----------------|
--7--7--7--7--2b4--2b4--2b4-2b4--2b4-2b4--2b4--2b4-2b4--2b4r2-|----------------|
--7--7--7--7--------------------------------------------------|----------------|
--5--5--5--5--------------------------------------------------|----------------|
--------------------------------------------------------------|----------------|
 <<

-------------|-0-----0-----0---0---0---0---------------------------|--|------|
-------------|-12----12----12--12--12--13--------------------------|--|-13---|
-------------|-13----13----13--13--13--12-----13-13---13-13-13-13--|--|-14---|
-------------|-14----14----14--14--14--14-----14-14---14-14-14-14--|2x|-14---|
-------------|-14----14----14--14--14--14-----14-14---14-14-14-14--|--|-0----|
-------------|-0-----0-----0---0---0---0------0--0----0--0--0--0---|--|------|
   Interlude

------------------------------------------------|--------------------------|---|
--13----13--13--13--15----15--15--13-----13-13--|--------------------------|---|
--14----14--14--14--14----14--14--14-----14-14--|--------------------------|---|
--14----14--14--14--0-----0---0---14-----14-14--|--------------------------|---|
--0-----0---0---0---0-----0---0---0------0--0---|--------------------------|---|
------------------------------------------------|--------------------------|---|
 								interlude once more

---------------|-----------------------------------------------------------|--|
---------------|-------12----12--12--12--12----12--12--12----12--12--12----|--|
---------------|-13----13----13--13--13--13----13--13--13----13--13--13----|--|
---------------|-14----14----14--14--14--14----14--14--14----14--14--14----|--|
---------------|-14----14----14--14--14--14----14--14--14----14--14--14----|--|
---------------|-0-----0-----0---0---0---0-----0---0---0-----0---0---0-----|--|
  interlude out

---------------|---------------------------------------|-------|
---------------|---------------------------------------|-------|
---------------|---------------------------------------|-------|
---------------|-------------------7--6--5--5----------|-------|
---------------|-2--2--5--6--7--7--5--4--3--3----------|-------|
---------------|-0--0--3--4--5--5--0--0----------------|-------|
      outro>>>                          "all just hum along"#--|
Tap to rate this tab
# A B C D E F G H I J K L M N O P Q R S T U V W X Y Z