Song name
# A B C D E F G H I J K L M N O P Q R S T U V W X Y Z

Stone Temple Pilots - Crackerman tab

#----------------------------------PLEASE NOTE--------------------------------#
#This file is the author's own work and represents their interpretation of the#
#song. You may only use this file for private study, scholarship, or research.#
#-----------------------------------------------------------------------------#
#-- File created with Instab - http://www.pconline.com/~smcarey/instab.html --#
#-----------------------------------------------------------------------------#

Author/Artist: Stone Temple Pilots
Title: Crackerman
Transcribed by: Saverain
/ slide up
\ slide down
h hammer on
p pull off
b bend
r release bend

Standard Tuning

---|-----------------------------------------------------------|--------------|
---|-----------------------------------------------------------|--------------|
---|-4-4-4-4-4-4-4-4-4-4-4-4-4---------------------------------|--------------|
---|-4-4-4-4-4-4-4-4-4-4-4-4-4-4-4-4-4-4-4-4-4-4-4-4-4-4-4-4-4-|--------------|
---|-0-2-2-0-2-2-0-2-2-0-2-2-2-4-4-4-4-4-4-4-4-4-4-4-4-4-4-4-4-|--------------|
---|---------------------------0-2-2-5-2-2-0-2-2-5-2-2-0-2-2-2-|--------------|
   Chorus/Intro

---|--------------------------------------|-----------------------------------|
---|-------------------------------4------|-----------------------------------|
---|-4-4-4-4-4-4-4-4-4-4-4-4-4-2---2------|-----------------------------------|
---|-4-4-4-4-4-4-4-4-4-4-4-4-4-2---4------|-----------------------------------|
---|-0-2-2-0-2-2-0-2-2-0-2-2-2-0----------|-----------------------------------|
---|--------------------------------------|-----------------------------------|
  Chorus/Intro End

---|---------------------------------|----------------------------------------|
---|---------------------------------|----------------------------------------|
---|---------------------------------|----------------------------------------|
---|-4-4-4-4-4-4-4-4-4-4-4-4-4-4-4-4-|----------------------------------------|
---|-4-4-4-4-4-4-4-4-4-4-4-4-4-4-4-4-|----------------------------------------|
---|-0-2-2-5-2-2-0-2-2-5-2-2-0-2-2-2-|----------------------------------------|
   Verse

---|--------------------------------------------------------------------------|
---|---------3------------------------------3-----------------------3---------|
---|-----2---2---4b5r4-2-4-2-4b5r4------2---2-------------------2---2---4b5r4-|
---|-4---2---0----------------------4---2---0---------------4---2---0---------|
---|-4---0--------------------------4---0-------------------4---0-------------|
---|-2------------------------------2--------------5b6r5-5--2-----------------|
   Interlude

----------------------5--------|----------------------------------------------|
----------------------3--------|----------------------------------------------|
-2-4-2-4b5r4------2---2--------|----------------------------------------------|
--------------4---2---0--------|----------------------------------------------|
--------------4---0------------|----------------------------------------------|
--------------2----------------|----------------------------------------------|


---------|-14-----14--------13-13-----13--------13-13-------------------------|
---------|-17b19-----17b19-----17b19-----17b19-----17b19r17b19r17--17b18-17---|
---------|---------------------------------------------------------16b17------|
---------|---------------------------------------------------------14b15------|
---------|--------------------------------------------------------------------|
---------|--------------------------------------------------------------------|
   Solo

------------------------------------------------------------------------------|
-17b19r17--17b19vvvvv-17-17---------------------17----------17b18r17-17-------|
----------------------16-16h18--13b15r13-13\9---16b17r16-16----------16b17r16-|
--------------------------------14b16r14-14\10--------------------------------|
--------------------------------11b13r11-11\7---------------------------------|
------------------------------------------------------------------------------|


-------------------------------------------------17-19b21r19--19b21r19--19b21-|
------------------------------------------------------------------------------|
-16-16b18r16-16b17r16-16vvvvvv-14h16-16b18r16---------------------------------|
-------------16b17r16-------------------------14------------------------------|
------------------------------------------------------------------------------|
------------------------------------------------------------------------------|


-17---------------------------------------------------11-------------11-------|
----19-17-14------------------------------------------14b16r14-14vvv-14b16r14-|
-------------17-16-14---------------------------------------------------------|
----------------------16------------------------------------------------------|
-------------------------16-15-13---------------------------------------------|
----------------------------------14b15--14b-16-r14---------------------------|


-----11-----------14----------------------------|-----------------------------|
-14v-14b16r14-14v-17b19-r17---------------------|-----------------------------|
------------------------------------------------|-----------------------------|
------------------------------------------------|-----------------------------|
-------------------------------12\--------------|-----------------------------|
------------------------------------------------|-----------------------------|


-------|--------|-------------------------------------------------------------|
-------|-4------|-------------------------------------------------------------|
-------|-2------|-------------------------------------------------------------|
-------|-4------|-------------------------------------------------------------|
-------|--------|-------------------------------------------------------------|
-------|--------|-------------------------------------------------------------|
       End on
Tap to rate this tab
 
# A B C D E F G H I J K L M N O P Q R S T U V W X Y Z