Song name
# A B C D E F G H I J K L M N O P Q R S T U V W X Y Z

Stone Temple Pilots - Dead And Bloated tab

#----------------------------------PLEASE NOTE--------------------------------#
#This file is the author's own work and represents their interpretation of the#
#song. You may only use this file for private study, scholarship, or research.#
#-----------------------------------------------------------------------------#
#-- File created with Instab - http://www.pconline.com/~smcarey/instab.html --#
#-----------------------------------------------------------------------------#

Author/Artist: Stone Temple Pilots
Title: Dead & Bloated
Transcribed by: Saverain
p pull off
/ slide up
\ slide down
P.M.. palm mute

D Tuning
-|---------------------------------------------------------------------------|
-|---------------------------------------------------------------------------|
-|---------------------------------------------------------------------------|
-|-7-----6p5---5p3-0---6p5---5p3-0--7-----6p5---5v---6p5---5v--6p5---5p3-0-0-|
-|-5--5--6p5-3-5p3-0---6p5-3-5p3-0--5--5--6p5-3-5v---6p5-3-5v--6p5-3-5p3-0-0-|
-|-7--7-----------------------------7--7-------------------------------------|
  MAIN RIFF

--------|-0---------0---------------------------------------------|-----------|
--------|-0---------0--------0-0----------------------------------|-----------|
--------|-4---4-x-x-4---4-4--4-4-x-x------------------------------|-----------|
--------|-4---4-x-x-5---5-5--5-5-x-x-2--x-x-2--x-2--2-2-x-2-2-2-2-|-----------|
--------|-2---2-x-x-5---5-5--5-5-x-x-2--x-x-2--x-2--2-2-x-2-2-2-2-|-----------|
--------|----------------------------2--x-x-2--x-2--2-2-x-2-2-2-2-|-----------|
  Riff 2  			   P.M    .    .. .... ........

--------|-------------------------0-0-0-0-------------------------0-0-0-0-----|
--------|-------------------------0-0-0-0-0-----------------------0-0-0-0-0---|
--------|-------------------------x-x-x-x-x-----------------------x-x-x-x-x---|
--------|-4-4-4-4-4-4-4-4-4-4-4-4-4-4-4-4-4-4-4-4-4-4-4-4-4-4-4-4-4-4-4-4-4-4-|
--------|-4-4-4-4-4-4-4-4-4-4-4-4-4-4-4-4-4-4-4-4-4-4-4-4-4-4-4-4-4-4-4-4-4-4-|
--------|-2-4-4-2-4-4-2-4-4-2-4-4-4-4-4-4-2-4-4-2-4-4-2-4-4-2-4-4-4-4-4-4-2-4-|
      P.M .Bass Plays Low Notes....P.M.444's...................................

---------------------0-0-0-0---------------------------------|----------------|
---------------------0-0-0-0-0-------------------------------|----------------|
---------------------x-x-x-x-x-------------------------------|----------------|
-4-4-4-4-4-4-4-4-4-4-4-4-4-4-4-4-4-4-4-4-4-4-4-4-4-4-4-4-4-4-|----------------|
-4-4-4-4-4-4-4-4-4-4-4-4-4-4-4-4-4-4-4-4-4-4-4-4-4-4-4-4-4-4-|----------------|
-4-2-4-4-2-4-4-2-4-4-4-4-4-4-2-4-4-2-4-4-2-4-4-2-4-4-2-4-4-4-|----------------|
...........................................................

--------|------------------------|---------------------------|--|---|---------|
--------|------------------------|---------------------------|--|---|---------|
--------|------------------------|---------------------------|--|---|---------|
--------|-9--8-8--7--6-6--5---5--|-5\--2-2-x-5\--2-2-x-2-2-2-|2x|-2-|---------|
--------|-9--8-8--7--6-6--5---5--|-5\--2-2-x-5\--2-2-x-2-2-2-|--|-2-|---------|
--------|-9--8-8--7--6-6--5-7-5--|-5\--2-2-x-5\--2-2-x-2-2-2-|--|-2-|---------|
  Chorus                               P.M..     ...   .....      .

--------|-------------------------------0-0-0---------0--0-0--0-0-0-0-0-0-|---|
--------|-------------------------------0-0-0---------0--0-0--0-0-0-0-0-0-|---|
--------|-------------------------------x-x-x---------x--x-x--x-x-x-x-x-x-|---|
--------|-4-4-4-4-4-4-4-4-4-4-4-4-4-4-4-4-4-4-4-4-4-4-4--4-4--4-4-4-4-4-4-|---|
--------|-4-4-4-4-4-4-4-4-4-4-4-4-4-4-4-4-4-4-4-4-4-4-4--4-4--4-4-4-4-4-4-|---|
--------|-2-4-4-2-4-4-2-4-4-2-4-4-2-4-4-2-4-4-2-4-4-2-4--2-4--2-4-2-4-4-4-|---|
  PreVerseP.M. 442's &440's

--------|-------------|-------------------------------------------------------|
--------|-------------|-------------------------------------------------------|
--------|-------------|-------------------------------------------------------|
--------|-7-----------|-------------------------------------------------------|
--------|-5--5--------|-------------------------------------------------------|
--------|-7--7--------|-------------------------------------------------------|
  End on
Tap to rate this tab
# A B C D E F G H I J K L M N O P Q R S T U V W X Y Z