Song name
# A B C D E F G H I J K L M N O P Q R S T U V W X Y Z

Stone Temple Pilots - Dumb Love tab

#----------------------------------PLEASE NOTE--------------------------------#
#This file is the author's own work and represents their interpretation of the#
#song. You may only use this file for private study, scholarship, or research.#
#-----------------------------------------------------------------------------#
#-- File created with Instab - http://www.pconline.com/~smcarey/instab.html --#
#-----------------------------------------------------------------------------#

Author/Artist: Stone Temple Pilots
Title: Dumb Love
Transcribed by: Saverain
Email: onlythebesttabs@hotmail.com

/ = slide up
\ = slide down
b = bend
m = mute
r = release bend
v = strum down
^ = strum up
h = hammer on
p = pull off

Important hint: The intro can be play using the power
chords if you think it sounds better.  For Riff 1 the xxxxx's
are actually making harmonic sounds which are made
by lightly placing your finger across the bar right after the
5th fret.  For the slide up just slide up slightly about 1/4 th
a fret up.

D Tuning (Tune the Low E string down one whole step)
DADGBe

----------|------------------------------------------------------|------------|
----------|------------------------------------------------------|------------|
----------|------------------------------------------------------|------------|
----------|------------------------------------------------------|------------|
----------|------------------------------------------------------|------------|
----------|-8/10-6-6--6/8-4-4--4/6-3--3/5-0-0--3/5-0-0--3-3/5-3--|------------|
  Intro

----------|-------------------------------|-----------------------------------|
----------|-------------------------------|-----------------------------------|
----------|-------------------------------|-----------------------------------|
----------|-0-0--0-0--0-0--0-0------------|-----------------------------------|
----------|-0-0--0-0--0-0--0-0--x-5br-5br-|-----------------------------------|
----------|-0-0--0-0--0-0--0-0--x-5br-5br-|-----------------------------------|
  Verse

----------|-----------------------------------------------------------|--|----|
----------|---------------------------------------------x-x-x-x/x-x-x-|--|----|
----------|---------------------------------------------x-x-x-x/x-x-x-|--|----|
----------|-5-5-5-5------5--5-5-5-------5-5-5-5------5--x-x-x-x/x-x-x-|2x|----|
----------|-5-5-5-5-6--6-5--5-5-5-6--6--5-5-5-5-6--6-5--x-x-x-x/x-x-x-|--|----|
----------|-5-5-5-5-6--6-5--5-5-5-6--6--5-5-5-5-6--6-5----------------|--|----|
   Riff 1

----------|-------|-----------------------------------------------------------|
----------|-------|-----------------------------------------------------------|
----------|-------|-----------------------------------------------------------|
----------|-------|-----------------------------------------------------------|
----------|-------|-----------------------------------------------------------|
----------|-------|-----------------------------------------------------------|
            Verse

----------|-5-5-5-5-5-5-5-5-5-5-5-5-5-5-5-5-6-6-6-6-6-6-6-6-3-3-3-3-3-3-3-3--|
----------|------------------------------------------------------------------|
----------|------------------------------------------------------------------|
----------|------------------------------------------------------------------|
----------|------------------------------------------------------------------|
----------|------------------------------------------------------------------|
  G2 Riff2 w/ Intro riff

----------|-------|-------|--------------------|------------|----|------------|
----------|-------|-------|--------------------|------------|----|------------|
----------|-------|-------|--------------------|------------|----|------------|
----------|-------|-------|--------------------|------------|----|------------|
----------|-------|-------|--------------------|------------|----|------------|
----------|-------|-------|--------------------|------------|----|------------|
            Solo   Riff 1   Intro Riff w/ riff2  Verse riff   End
Tap to rate this tab
# A B C D E F G H I J K L M N O P Q R S T U V W X Y Z