Song name
# A B C D E F G H I J K L M N O P Q R S T U V W X Y Z

Stone Temple Pilots - Naked Sunday tab

#----------------------------------PLEASE NOTE--------------------------------#
#This file is the author's own work and represents their interpretation of the#
#song. You may only use this file for private study, scholarship, or research.#
#-----------------------------------------------------------------------------#
#-- File created with Instab - http://www.pconline.com/~smcarey/instab.html --#
#-----------------------------------------------------------------------------#

Author/Artist: Stone Temple Pilots
Title: Naked Sunday
Transcribed by: Saverain
b bend
/ slide up
\ slide down
d strum down
u strum up

G1 tabbed

Standard Tuning

-----|------------------------------------------------------------------|-----|
-----|------------------------------------------------------------------|-----|
-----|------------------------------------------------------------------|-----|
-----|------------------------------------------------------------------|-----|
-----|------------------------------------------------------------------|-----|
-----|------------------------------------------------------------------|-----|
      Intro pull A string Over Low E String w/ fingering hand and strum them

-----------|-------------0-----------------------------------------------0---|
-----------|-4-x-4-x-4---1---4-x-4-x-4---1---4-x-4-x-4---1---4-x-4-x-4---1---|
-----------|-5-x-5-x-5---0---5-x-5-x-5---3---5-x-5-x-5---x---5-x-5-x-5---3---|
-----------|-x-x-x-x-x---2---x-x-x-x-x---2---x-x-x-x-x---2---x-x-x-x-x---2---|
-----------|-6-x-6-x-6b\-3---6-x-6-x-6b\-3---6-x-6-x-6b\-3---6-x-6-x-6b\-3---|
-----------|---------4---------------4---------------4---------------4-------|
  Verse/Intro

-------------|----------------------------|--|-0----|-------------------------|
-------------|-4--4--4--x-x-x-1--x-1--x-x-|--|-1----|-------------------------|
-------------|-5--5--5--x-x-x-x--x-x--x-x-|--|-3----|-------------------------|
-------------|-x--x--x--x-x-x-2--x-2--x-x-|3x|------|-------------------------|
-------------|-6--6--6--x-x-x-3--x-3--x-x-|--|------|-------------------------|
-------------|----------------------------|--|------|-------------------------|
     Chorus
Tap to rate this tab
# A B C D E F G H I J K L M N O P Q R S T U V W X Y Z