Song name
# A B C D E F G H I J K L M N O P Q R S T U V W X Y Z

Stone Temple Pilots - Vasoline tab

#----------------------------------PLEASE NOTE--------------------------------#
#This file is the author's own work and represents their interpretation of the#
#song. You may only use this file for private study, scholarship, or research.#
#-----------------------------------------------------------------------------#
#-- File created with Instab - http://www.pconline.com/~smcarey/instab.html --#
#-----------------------------------------------------------------------------#

Author/Artist: Stone Temple Pilots
Title: Vasoline Live
Transcribed by: Saverain

/ = slide up
\ = slide down
b = bend
r = release bend
h = hammer on
p = pull off

Live version but not far from recorded version.  New STP Album out May 25, 2010.

Standard Tuning (EADGBe)

----------|------------------------|---0----|---------------------------------|
----------|------------------------|---0----|---------------------------------|
----------|------------------------|---7----|---------------------------------|
----------|------------------------|---7----|---------------------------------|
----------|------------------------|---x----|---------------------------------|
----------|----6vvvvvvvvvvvv-------|---6----|---------------------------------|
   Intro                       Mess w/ chord


----------|---------------------|--|------------------------------|----------|
----------|---------------------|--|------------------------------|----------|
----------|---------------------|--|------------------------------|----------|
----------|---------------------|3x|------------------------------|-x-x-x-x--|
----------|---------------------|--|------------------------------|-x-x-x-x--|
----------|-1-3--1-3--1-3--1-3--|--|-1-3--1-3--1-3--1-4b--4-1vvvvv|-x-x-x-x--|
   Verse

----------|------------|----------------------------|-------------------------|
----------|------------|----------------------------|-------------------------|
----------|------------|----------------------------|-------------------------|
----------|------------|----------------------------|-------------------------|
----------|------------|----------------------------|-------------------------|
----------|------------|-1-3--1-3--1-3--1-3--1-3-3--|-------------------------|
           Verse Riff

----------|---------|--|---------|---------|--|---------------|---------------|
----------|---------|--|-------5-|-5-5-5-5-|--|---------------|---------------|
----------|-8-8-8-8-|--|-8-7-6-5-|-5-5-5-5-|--|-5-5-5-5-5-----|---------------|
----------|-8-8-8-8-|7x|-8-7-6-5-|-5-5-5-5-|6x|-5-5-5-5-5-3---|---------------|
----------|-6-6-6-6-|--|-6-5-4-3-|-3-3-3-3-|--|-3-3-3-3-3-3---|---------------|
----------|---------|--|---------|---------|--|-----------1---|---------------|
   Chorus                                     "in the vasoline"

----------|--------|----------------------------|-----|------0---------------|
----------|--------|----------------------------|-----|------0---------------|
----------|--------|----------------------------|-----|------7---------------|
----------|--------|----------------x\x\x\x\x\x-|-----|------7---------------|
----------|--------|----------------x\x\x\x\x\x-|-----|------x---------------|
----------|--------|-1-3--1-3--1-3--x\x\x\x\x\x-|-----|------6---------------|
            Verse                                Verse  Interlude Chord


-------|-8p7-----8p7-----8p7-----8p7-----8p7-----8p7-----8p7-----8p7----------|
-------|-----6-6-----6-6-----6-6-----6-6-----6-6-----6-6-----6-6-----6-6-6bvv-|
-------|----------------------------------------------------------------------|
-------|----------------------------------------------------------------------|
-------|----------------------------------------------------------------------|
-------|----------------------------------------------------------------------|
   Solo

--------------------------------19-b20---------------------------------------|
-----------------------------------------------------------------------------|
--4-4-4p0---0-------4-4-4p0---0---------4-4-4p0---0-------4-4-4p0---0-4---4--|
----------5-----------------5-------------------5-----------------5-----5----|
--------------2-2-----------------------------------2-2----------------------|
-----------------------------------------------------------------------------|


--------|--------|--------|-------------|-0-----------|-----------------------|
--------|--------|--------|-------------|-5-----------|-----------------------|
--------|--------|--------|-------------|-7-----------|-----------------------|
--------|--------|--------|-------------|-7-----------|-----------------------|
--------|--------|--------|-------------|-x-----------|-----------------------|
--------|--------|--------|-------------|-6-----------|-----------------------|
          Verse    Chorus  Verse Riff    Out
Tap to rate this tab
# A B C D E F G H I J K L M N O P Q R S T U V W X Y Z