Song name
# A B C D E F G H I J K L M N O P Q R S T U V W X Y Z

Stone Temple Pilots - Between The Lines tab

#----------------------------------PLEASE NOTE--------------------------------#
#This file is the author's own work and represents their interpretation of the#
#song. You may only use this file for private study, scholarship, or research.#
#-----------------------------------------------------------------------------#
#-- File created with Instab - http://www.pconline.com/~smcarey/instab.html --#
#-----------------------------------------------------------------------------#

Author/Artist: Stone Temple Pilots
Title: Between The Lines
Transcribed by: Saverain

m mute
no solo yet

D tuning

------|----------------|--|---------------------------------------------------|
------|----------------|--|---------------------------------------------------|
------|----------------|--|---------------------------------------------------|
------|-5-5-5-5-5-5-5--|2x|---------------------------------------------------|
------|-3-3-0-3-3-0-3--|--|---------------------------------------------------|
------|----------------|--|---------------------------------------------------|
  Intro/mid riff

------|-------------|----------------|--|-------------------------------------|
------|-------------|----------------|--|-------------------------------------|
------|-------------|----------------|--|-------------------------------------|
------|-------------|----------------|--|-------------------------------------|
------|-------------|-5-5--5---------|--|-------------------------------------|
------|-0--0--3-5-3-|-0-0--0-3-3-5-3-|--|-------------------------------------|
P.M...........................
   Verse

------|--------------------5--5---|--|----------------|-----------------------|
------|--------------------3--3---|--|----------------|-----------------------|
------|-5-5--5-5-5-5-5-----5--5---|--|-5-5--5-5-5-5-5-|-----------------------|
------|-5-5--5-5-5-5-5-----4--4---|--|-5-5--5-5-5-5-5-|-----------------------|
------|-3-3--3-0-3-3-3------------|--|-3-3--3-0-3-3-3-|-----------------------|
------|-----------------0---------|--|----------------|-----------------------|
   Chorus                    m

------|----------------------|------------------------|--|--------------------|
------|----------------------|------------------------|--|--------------------|
------|-7--7--7-7-----5--7-7-|-7-7--7--7-7-----5--7-7-|--|--------------------|
------|-7--7--5-5--3--3--5-5-|-7-7--7--5-5--3--3--5-5-|--|--------------------|
------|-5--5--5-5--3--3--5-5-|-5-5--5--5-5--3--3--5-5-|--|--------------------|
------|------------3---------|--------------3---------|--|--------------------|
    Riff 1 "Even when we use to take"

------|---------------------------|--------------------------------|--|-------|
------|---------------------------|--------------------------------|--|-------|
------|--------9-9--------x-x-7-7-|--------x-x-9-9--------x-x-7-7--|--|-------|
------|-7\-x-x-7-7-5-5--5-x-x-5-5-|-7-7--7-x-x-7-7-5-5--5-x-x-5-5--|--|-------|
------|-7\-x-x-7-7-3-3--3-x-x-5-5-|-7-7--7-x-x-7-7-3-3--3-x-x-5-5--|--|-------|
------|-7\------------------------|-7-7--7-------------------------|--|-------|
    Interlude
Tap to rate this tab
# A B C D E F G H I J K L M N O P Q R S T U V W X Y Z