Song name
# A B C D E F G H I J K L M N O P Q R S T U V W X Y Z

Stone Temple Pilots - Plush tab

#-----------------------------------------------------------------------------#
#-- File created with Instab - http://www.pconline.com/~smcarey/instab.html --#
#-----------------------------------------------------------------------------#

Author/Artist: Stone Temple Pilots
Title: Plush
Transcribed by: Saverain
/ slide up
b bend
x mute scratch

Standard tuning

------|-3--3---3---3-3-3-3-3-3-3-3--3---3---3-3-3--|--------------------------|
------|-3--3---2-----------------1--1---0---0-1-2--|--------------------------|
------|-0--0---3b----------------2--2---0---0-0-0--|--------------------------|
------|--------------------------------------------|--------------------------|
------|--------------------------------------------|--------------------------|
------|--------------------------------------------|--------------------------|
   Intro

------|-3----3---3---3-3-3-3-3-3-3-3--3---3---3-3-3--|--|---------------------|
------|-2/3--3---2-----------------1--1---0---0-1-2--|--|---------------------|
------|-0----0---3b----------------2--2---0---0-0-0--|--|---------------------|
------|----------------------------------------------|2x|---------------------|
------|----------------------------------------------|--|---------------------|
------|----------------------------------------------|--|---------------------|


------|-3----3---3---3-3-3-3-3-3-3-3--3---3------|----------------------------|
------|-2/3--3---2-----------------1--1---0------|----------------------------|
------|-0----0---3b----------------2--2---0------|----------------------------|
------|------------------------------------------|----------------------------|
------|------------------------------------------|----------------------------|
------|------------------------------------------|----------------------------|


------|-3--3------------------------------------------------------------------|
------|-3--3------------------------------------------------------------------|
------|-0--0--------------------------------------------------3-3--3--x-x-x-3-|
------|-------x-x-x-0-0--0--x-x-x-0-0--0--x-x-x-2-2--0--x-x-x-1-1--1--x-x-x-1-|
------|-------x-x-x-0-0--0--x-x-x-0-0--0--x-x-x-0-0--0--x-x-x-1-1--1--x-x-x-1-|
------|-------x-x-x-2-2--0--x-x-x-1-1--1--x-x-x-0-0--0--x-x-x-----------------|
   Verse Riff

-------------|--|-------------------------------------------------------------|
-------------|--|-------------------------------------------------------------|
-3--3--2-2-2-|--|-------------------------------------------------------------|
-1--1--3-3-3-|2x|-------------------------------------------------------------|
-1--1--3-3-3-|--|-------------------------------------------------------------|
-------------|--|-------------------------------------------------------------|


------|-0--0-0----------0-0-0-|--|--------------------------------------------|
------|-3--3-3-3--3--3--3-3-3-|--|--------------------------------------------|
------|-2--2-2-0--0--0--0-0-0-|--|--------------------------------------------|
------|--------x--x--x--------|4x|--------------------------------------------|
------|--------3--2--3--------|--|--------------------------------------------|
------|-----------------------|--|--------------------------------------------|
   Mid Riff (Vary)

------|-----------------------------------------------------------------------|
------|-----------------------------------------------------------------------|
------|-3-3--3--x-x-x-3-3--3--x-x-x-2-2--2--x-x-x-2-2--2--x-x-x-3-3--3--x-x-x-|
------|-1-1--1--x-x-x-1-1--1--x-x-x-3-3--3--x-x-x-3-3--3--x-x-x-1-1--1--x-x-x-|
------|-1-1--1--x-x-x-1-1--1--x-x-x-3-3--3--x-x-x-3-3--3--x-x-x-1-1--1--x-x-x-|
------|-----------------------------------------------------------------------|
   Interlude

----------------------------------------------|--|----------------------------|
----------------------------------------------|--|----------------------------|
-3-3--3--x-x-x-2-2--2--x-x-x-2-2--x-x-x-2-2-x-|--|----------------------------|
-1-1--1--x-x-x-3-3--3--x-x-x-3-3--x-x-x-3-3-x-|2x|----------------------------|
-1-1--1--x-x-x-3-3--3--x-x-x-3-3--x-x-x-3-3-x-|--|----------------------------|
----------------------------------------------|--|----------------------------|


------|------------------------------------------------------|--|-------------|
------|------------------------------------------------------|--|-------------|
------|------------------------------------------------------|--|-------------|
------|-------------------------------------7/8-8-8-8-7-7-7--|3x|-------------|
------|-5-5-5-5-5--5-3-3-3--x-3--3-3-3-3-3--5/6-6-6-6-5-5-5--|--|-------------|
------|-3-3-3-3-3--3-1-1-1--x-1--0-0-0-0-0-------------------|--|-------------|
    G1 Chorus    m                        m                m

------|--------------------------------------------------|--------------------|
------|--------------------------------------------------|--------------------|
------|--------------------------------------------------|--------------------|
------|-------------------------------------7/8--8---7---|--------------------|
------|-5-5-5-5-5--5-3-3-3--x-3--3-3-3-3-3--5/6--6---5---|--------------------|
------|-3-3-3-3-3--3-1-1-1--x-1--0-0-0-0-0---------------|--------------------|
    G1 Chorus End                         m

------|-----------------------------------------------------------------------|
------|-----------------------------------------------------------------------|
------|--7---------7------7-----7-----------5---5----------5-----5----------7-|
------|--9----9------9--------9----x-7----5---5---5------5-----5---5------9---|
------|----10---10-----10---8------x-8--7-----------7--6-----5-------5-10-----|
------|-----------------------------------------------------------------------|
    G2 Chorus 1

------------------------------------------------------------------------------|
------------------------------------------------------------------------------|
----7------------7-----------5---5----------5-5---7----------7---7------------|
--9---9--------9----x-7----5---5---5------5-----5---5------9---9---9--------9-|
--------10-8-8------x-8--7-----------7--6-------------5-10-----------8--8-8---|
------------------------------------------------------------------------------|


----------------------------------|-------------------------------------------|
----------------------------------|-------------------------------------------|
-7-----------5---5----------------|-------------------------------------------|
----x-7----5---5---5----x-8---7---|-------------------------------------------|
----x-8--7-----------7--x-6---5---|-------------------------------------------|
----------------------------------|-------------------------------------------|


------|---------------------------------------------------------|--|----------|
------|---------------------------------------------------------|--|----------|
------|------7---7-------7-----------5---5----------5-----5-----|--|----------|
------|----9---9-------9----x-7----5---5---5------5-----5---5---|--|----------|
------|-10-----------8------x-8--7-----------7--6-----5-------5-|--|----------|
------|---------------------------------------------------------|--|----------|
    G2 Chorus 2
Tap to rate this tab
# A B C D E F G H I J K L M N O P Q R S T U V W X Y Z