Song name
# A B C D E F G H I J K L M N O P Q R S T U V W X Y Z

Stone Temple Pilots - Sex Type Thing tab

Song: Sex Type Thing
Artist: The Stone Temple Pilots
Arranger: Brandon Wilson

Chorus
:-------------------------------------l  l
:-------------------------------------l  l
:-------------------------------------l  l
:-------------------------------------lx4l
:----9----8----7-----5---5--7--5------l  l
:--0-7--0-6--0-5--0--3---3--5--3--0---l  l

Verse 1
:-------------------------------------l  l
:-------------------------------------l  l
:-------------------------------------l  l
:-------------------------------------lx4l
:--2----4--4--2-4----2--4--4--2--4----l  l
:--0----2--2--0-2----0--2--2--0--2----l  l

Chorus
:-------------------------------------l  l
:-------------------------------------l  l
:-------------------------------------l  l
:-------------------------------------lx4l
:----9----8----7-----5---5--7--5------l  l
:--0-7--0-6--0-5--0--3---3--5--3--0---l  l

Verse 1
:-------------------------------------l  l
:-------------------------------------l  l
:-------------------------------------l  l
:-------------------------------------lx4l
:--2----4--4--2-4----2--4--4--2--4----l  l
:--0----2--2--0-2----0--2--2--0--2----l  l

Verse 2
:-------------------------------------l  l
:-------------------------------------l  l
:-------------------------------------l  l
:-------------------------------------l  l
:--9-9-9-7--12-12-7-7-----------------lx4l
:--7-7-7-5--10-10-5-5-----------------l  l

Chorus
:-------------------------------------l  l
:-------------------------------------l  l
:-------------------------------------l  l
:-------------------------------------lx4l
:----9----8----7-----5---5--7--5------l  l
:--0-7--0-6--0-5--0--3---3--5--3--0---l  l

Verse 1
:-------------------------------------l  l
:-------------------------------------l  l
:-------------------------------------l  l
:-------------------------------------lx4l
:--2----4--4--2-4----2--4--4--2--4----l  l
:--0----2--2--0-2----0--2--2--0--2----l  l


Verse 2
:-------------------------------------l  l
:-------------------------------------l  l
:-------------------------------------l  l
:-------------------------------------l  l
:--9-9-9-7--12-12-7-7-----------------lx4l
:--7-7-7-5--10-10-5-5-----------------l  l

Bridge
:-------------------------------------l  l
:-------------------------------------l  l
:--9-9-11-11-13-14-16-16-16-16-16-16--l  l
:-------------------------------------l  l
:-------------------------------------lx2l
:-------------------------------------l  l

Verse 1
:-------------------------------------l  l
:-------------------------------------l  l
:-------------------------------------l  l
:-------------------------------------lx4l
:--2----4--4--2-4----2--4--4--2--4----l  l
:--0----2--2--0-2----0--2--2--0--2----l  l

Verse 2
:-------------------------------------l  l
:-------------------------------------l  l
:-------------------------------------l  l
:-------------------------------------l  l
:--9-9-9-7--12-12-7-7-----------------lx8l
:--7-7-7-5--10-10-5-5-----------------l  l

Bridge
:-------------------------------------l  l
:-------------------------------------l  l
:--9-9-11-11-13-14-16-16-16-16-16-16--l  l
:-------------------------------------l  l
:-------------------------------------lx2l
:-------------------------------------l  l

Chorus
:-------------------------------------l  l
:-------------------------------------l  l
:-------------------------------------l  l
:-------------------------------------lx8l
:----9----8----7-----5---5--7--5------l  l
:--0-7--0-6--0-5--0--3---3--5--3--0---l  l
Tap to rate this tab
# A B C D E F G H I J K L M N O P Q R S T U V W X Y Z