Song name
# A B C D E F G H I J K L M N O P Q R S T U V W X Y Z

Stone Temple Pilots - Crackerman Acoustic tab

IMPATIENT PEOPLE SKIP THIS:
So I noticed this website doesn't have anything for the unplugged version of this song
I looked on a similar website to find it. Not only couldn't I find it on that website,
I couldn't find this intro anywhere on the web (I'll be optimistic: "I'm sure it's 
So I watched the video (http://www.youtube.com/watch?v=TMdbZcWsOa4) and figured it
myself (it honestly only took 10 minutes). Enjoy the crappy transcription I made...

No tuning up or down half-steps, just standard tuning.

I also suggest you put your index finger on the 5th string 2nd fret (to get comfortable,
it doesn't really do anything), Middle finger on the 3rd string 3rd fret, ring finger
the 5th string 4th fret, and pinky on the 4th string 4th fret. DON'T DO A BAR CHORD!

Chord Figure:

e-----0------|
B-----0------|
G-----3------|
D-----4------|
A-----4------|
E-----X------|


Key:

: = let note ring until this symbol

\ = downstroke

/ = upstroke

Intro:
     \ / \ / \ / \ / \ / \           \ / \ / \ / \ / \ / \
e----------0-0-----------------------------0-0-----------------------|
B--------0-----0-0---0-0-----------------0-----0-0---0-0-------------|
G------3-----------3-----3---------:---3-----------3-----3---------:-|
D----4-------------------------------4-------------------------------|
A----4-------------------------------4-------------------------------|
E--------------------------------------------------------------------|

      \ / \ / \ / \ / \ / \          \ / \ / \ / \ /
e-----------0-0----------------------------0-0-----------------------|
B---------0-----0-0---0-0----------------0-----0-0-------------------|
G-------3-----------3-----3--------:---3-----------3---------:-------|
D-----4------------------------------4-------------------------------|
A-----4------------------------------4-------------------------------|
E--------------------------------------------------------------------|
Tap to rate this tab
 
# A B C D E F G H I J K L M N O P Q R S T U V W X Y Z