Song name
# A B C D E F G H I J K L M N O P Q R S T U V W X Y Z

Stone Temple Pilots - Huckleberry Crumble tab

STP - "Huckleberry Crumble"
From "Stone Temple Pilots" Album (2010)
Standard tuning
tabbed by jjhand


I agree with some of the blogs mentioning that this song is a lot like 
Aerosmith's musical style. Its still a good song and has nice lead solos. 
Please rate/comment. I don't have all the lyrics, but will update once 
they are available.


Main Riff - Rhythm w/ dirty sounding distortion
e|---------------|---------------|---------------|-------------|
B|---------------|---------------|---------------|-------------|
G|---------------|---------------|---------------|-------------|
D|---------------|---------------|---------------|-5-----5-----|
A|-5b6---7---7-7-|-5b6---7---7-7-|-5b6---7---7-7-|-5-----5-----|
E|-------0---0-0-|-------0---0-0-|-------0---0-0-|-3---2-3-----|



Intro Wah Solo (0:07)
e|---------------------------|----------------------|--------------------|
B|---5-3-5-3-0---0-----------|----------------------|----------12----0---|
G|-4-----------2---2-0-2-0---|-0--------------------|------7---12--------|
D|-------------------------0-|---0---0h2-2~~--7p5h7-|-/9----------14-----|
A|---------------------------|-----2----------------|--------------------|
E|---------------------------|----------------------|--------------------|


e|----------------------------|-12~~~--|
B|--------15---15-------------|--------|
G|-14b16____b16__r14-12-14p12-|--------|
D|----------------------------|--------|
A|----------------------------|--------|
E|----------------------------|--------|




Verse - Play Main Riff 2x and repeat final bar at end

"Less conversation, moral obligations, 
 tell me how you feeling tonight (right)
 Mind's over-racin', fear she got me shaking
 Motor state's changin your mind (mind, mind, mind)"



PreChorus - let notes ring
e|-------------------------|-------------------------|------------------------|
B|/5-0-3-2-0---------------|/5-0-3-2-0---------------|/5-0-3-2-0--------------|
G|-----------0-1-2---------|-----------0-1-2---------|-----------0-1-2-2---2--|
D|-----------------2---2---|-----------------5---5---|-----------------2---2--|
A|-----------------2---2---|-----------------5---5---|-----------------0---0--|
E|-----------------0---0---|-----------------3---3---|------------------------|

"I see whats at the endin' of the rat trap"
"Lady jabberwockies eating bed bugs"
"The rabbit dug a hole stright thru to China"

e|------------------------------|
B|-2-3p2p0--------2-3p2p0-------|
G|-2-3p2p0--------2-3p2p0-------|
D|---------2--2-----------2--2--|
A|------------2--------------2--|
E|------------0--------------0--|
 "So where do we go? and where does the rabbit go?"





Chorus - play 3x
e|---------------------|------------------------|
B|---------------------|------------------------|
G|---------------------|------------------------|
D|---7----7----5----5--|-2--2--2----2--2--2--2--|
A|---7----7----5----5--|-2--2--2----2--2--2--2--|
E|-0-5--0-5--0-3--0-3--|-0--0--0----0--0--0--0--|
"I feel like I'm pulling away" 2x
"I feel like I'm sinkin in, I'm movin in"         


Chorus Ending:
|----------------------|
|----------------------|
|----------------------|
|-2-2----2----2--2--2--|
|-2-2----2----2--2--2--|
|-0-0----0----0--0--0--|
"I feelin like pulling away"


Immediately play main riff again on Rhythm, Lead plays:

Solo 2
e|----------------------------|----------------------|----------------------|
B|--------15---15-------------|----------------------|----------------------|
G|-14b16____b16__b16r14-12-14-|-12qb-----------------|-12---------------/14-|
D|----------------------------|-------14p12-14___b17-|-----12h14p12--12-----|
A|----------------------------|----------------------|-------------14-------|
E|----------------------------|----------------------|----------------------|

e|--------------12-----12-----12---------|-12~~~----------|
B|------------12--15b17--15-12--12-15b17-|----------------|
G|-12qb--14b16---------------------------|----------------|
D|---------------------------------------|----------------|
A|---------------------------------------|----------------|
E|---------------------------------------|----------------|


Play Verse Again with Lyrics:

"All the top titles, a hussy and a cousin
A sleazy-like impression aint right (right)
Motor city's movin, this big place is groovin
He's the number one presenter tonight
(right on, right on, right on)"



Play PreChorus again



Play Chorus again




Bridge (1:56)
  Rhythm                                       play this bar 2x
e|---------------------|---------------------|-----------------|
B|-4----4----4--4------|-5----5----5--5------|-3----3----3--3--|
G|-4----4----4--4------|-4----4----4--4------|-4----4----4--4--|
D|-4----4----4--4------|-4----4----4--4------|-5----5----5--5--|
A|-2----2----2--2------|-0----0----0--0------|-----------------|
E|---------------------|---------------------|-----------------|
 |
 | Lead
e|---------------------|---------------------|-----------------|
B|-4-------------------|-5-------------------|-7---------------|
G|-4-------------------|-6-------------------|-7---------------|
D|---------------------|---------------------|-----------------|
A|---------------------|---------------------|-----------------|
E|---------------------|---------------------|-----------------|
  "Don't     let the    grip   on   this   subside.      Trips will"
  "only __ __ __ at a time"



Solo - Rhythm Guitar Plays main riff throughout

e|----12------------------|--------------------|--------12-----12------------|
B|-12----12-15----12------|--------------------|------12--15b17--13-12-------|
G|-------------14----14b15_b16--12--12b13r12---|-14b16----------------15-12--|
D|------------------------|-----------------14-|-----------------------------|
A|------------------------|--------------------|-----------------------------|
E|------------------------|--------------------|-----------------------------|


e|-----7--------7----------|---------------------|----------------------12---|
B|-------7-10b12--8-7------|-11b12r11-11h12/15~~~|-11b12r11---------------12-|
G|-9b11--------------10-7~-|---------------------|-----------------14b16-----|
D|-------------------------|---------------------|---------14-12~~-----------|
A|-------------------------|---------------------|---------------------------|
E|-------------------------|---------------------|---------------------------|


e|--------12-----------12--------------|--------------------------|
B|-15b17----15-12-15b17--15-14-12------|--------------------------|
G|-------------------------------15-12-|---12--14--12--12--14--12-|
D|-------------------------------------|/14--14--14--14--14--14---|
A|-------------------------------------|--------------------------|
E|-------------------------------------|--------------------------|


e|----15--17b19---15-17--15-----|--------------------------|
B|-/17--15-------------17---18b___b20-17-18b20_b20~~~------| other random 
G|------------------------------|--------------------------| noises are 
D|------------------------------|--------------------------| made but are hard to
A|------------------------------|--------------------------| figure out
E|------------------------------|--------------------------|


Play Chorus

Play 1 line of Prechorus to end song


KEY
| /  slide up
| \  slide down
| h  hammer-on
| p  pull-off
| b  bend string
| r  release bend
| ~  vibrato
| x  Mute note
| __ hold note during bend
Tap to rate this tab
# A B C D E F G H I J K L M N O P Q R S T U V W X Y Z