Song name
# A B C D E F G H I J K L M N O P Q R S T U V W X Y Z

Stone Temple Pilots - Bagman tab

#-----------------------------------------------------------------------------#
#-- File created with Instab - http://www.pconline.com/~smcarey/instab.html --#
#-----------------------------------------------------------------------------#

Author/Artist: Stone Temple Pilots
Title: Bagman
Transcribed by: Saverain

/ slide up

Standard Tuning

------|-------------------------------|---------------------------------------|
------|---------------0--0------------|---------------------------------------|
------|-7--7--5-7--5--0--0------------|---------------------------------------|
------|-7--7--5-7--7----------------0-|---------------------------------------|
------|---------------------3-3-5-5-0-|---------------------------------------|
------|---------------------1-1-3-3---|---------------------------------------|
   Chorus

------|----------------------------|--|---------------------------------------|
------|----------------------------|--|---------------------------------------|
------|-7--7--5-7--5--7--5-5-7-7-5-|--|---------------------------------------|
------|-7--7--5-7--5--7--5-5-7-7-5-|--|---------------------------------------|
------|-5--5--3-5--3--5--3-3-5-5-3-|--|---------------------------------------|
------|----------------------------|--|---------------------------------------|
   Verse

------|----------------------------|--|---------------|-----------------------|
------|----------------------------|--|---------------|-----------------------|
------|----------------------2--0--|--|-2---2---0-----|-----------------------|
------|--------------------0-------|--|-0---0---0-----|-----------------------|
------|------5----5--2---2---------|--|-2---2---2-----|-----------------------|
------|-5/6-----6------3-----------|--|-3---3---3-----|-----------------------|
        Interlude
Tap to rate this tab
# A B C D E F G H I J K L M N O P Q R S T U V W X Y Z