Song name
# A B C D E F G H I J K L M N O P Q R S T U V W X Y Z

Stone Temple Pilots - Bagman tab

Stone Temple Pilots - 'Bagman'
From the Self-Titled 2010 album
standard tuning
tabbed by jjhand

This song has some easy riffs and a nice solo. Please rate/comment


Intro/Chorus - play 4x

   G7        C  G7   F       G
e|---------------------|------------------------|
B|-6----6----5--6----1-|-(1)/3------------------|
G|-7----7----5--7----2-|-(2)/4---------------0--|
D|-5----5----5--5----3-|-(3)/5---------------0--|
A|---------------------|------------------------|
E|---------------------|----------1--1/3--3-----|

  "Bag-man honey", "Bag-man sugar" etc





Verse - played
e|-----------------------|-----------------------|
B|-7----7----5--7-----7--|---7----5--7--5--7--5--|
G|-7----7----5--7-----7--|---7----5--7--5--7--5--|
D|-7----7----5--7-----7--|---7----5--7--5--7--5--|
A|-----------------------|-----------------------|
E|-----------------------|-----------------------|

                        "I know it feels good"
                        "but be careful with your vices"
                        "Fallin, crawling on your knees again"
                        "Watch out for the Bagman!"



Play Chorus Riff - Lyrics:

"(Bagman Honey)...      He aint no travelling salesman
 (Bagman sugar)...      Oh, do what you want
 (Fat man shouting)...  Your money good for nothing baby
 (Bagman slings it)...  Does it hurt?"




Play Verse again - Lyrics:

"We almost got it right
 Revelation
 Conversation made it laden
 With the Bagman's bag"


Play Chorus again - Same Lyrics





Bridge- Electric w/ Acoustic Gtr strums

play 3x
    Bbsus2          G/B
e|----------------|------------------|     acoustic strums:
B|----------------|------------------|           Bb2    x13311
G|----------------|------------0-----|           G/B    x20033
D|-------3~-------|-------7----------|
A|-----5----------|-----5------------|
E|-5/6------------|-6/7--------------|

"Then, There was a dream
 When you said we would be free
 But now is the time...  To be real"      Acoustic strums a Bb2 at end of bridge





Outro Solo, with track time noted
  
second guitar plays Intro/Chorus Riff throughout

           (1:44)
e---------|--------------|----------------|------------|-------------|
B---------|--------------|----------------|----------1-|-1-0h1p0-----|
G---0-2---|--------------|----------0-2---|-----0------|---------2~--|
D-3-----3-|-(3)-0--------|-(0)----3-----3-|-(3)--------|-------------|
A---------|--------------|----------------|------------|-------------|
E---------|--------------|----------------|------------|-------------|


e|--------------------------|-----------------------|------------------|----------|
B|-3--1h3p1p0-1-0h1p0---0---|-----------------------|------------------|--------5-|
G|--------------------2---2-|-0h2p0-----------------|------------------|------7---|
D|--------------------------|-------3--2h3p2p0--0-2-|-2b3-b3--b3r2-0-7-|-5~~~-----|
A|--------------------------|-----------------------|------------------|----------|
E|--------------------------|-----------------------|------------------|----------|

(2:01)
e|--------------------|----------------|------------------|------------|
B|-5b6--b6---b6r5---5-|-5b6----------5-|-5b6--b6---b6r5---|------------|
G|----------------7---|-----7~~~---7---|----------------7-|-7----------|
D|--------------------|----------------|------------------|------------|
A|--------------------|----------------|------------------|------------|
E|--------------------|----------------|------------------|------------|
  "Bagman Honey"                        "Bagman Sugar"   etc...

e|---------------------|----------------|-----------------|------------------|
B|-6h8-6h8p6p5-6-5---5-|----------------|-----------------|------------------|
G|-----------------7---|-7--------------|-4-4-5-4-5p4p0---|-0-------3NH---12-|
D|---------------------|------7-5-------|-3_______------3-|--------x---------|
A|---------------------|----------------|-----------------|-------x----------|
E|---------------------|----------------|-----------------|------------------|

(2:17)
e|---------------12-----|---------12-12b13--|-12b13r12-------------|---------------|
B|------12-----12--15~--|-(15)--15----------|-15-------15-13-15/17-|-15--------12--|
G|-12-14--12-12---------|-------------------|----------------------|---------------|
D|----------------------|-------------------|----------------------|------17\12__--|
A|----------------------|-------------------|----------------------|---------------|
E|----------------------|-------------------|----------------------|---------------|


e|---------------------|----------------|----------------|------------|
B|-8-5h6p5---6-5---5---|----------------|----------------|------------|
G|---------7-----7---7-|-5-4-2-0------0-|-2-4-5-4----0---|-0---3NH~~--|
D|---------------------|---------0------|--------------0-|------------| end
A|---------------------|----------------|----------------|------------|
E|---------------------|----------------|----------------|------------|



KEY
| /   slide up
| \   slide down
| h   hammer-on
| p    pull-off
| b   bend note
| r   release bend
| ~   vibrato
| NH  natural harmonic
| x   Mute note
Tap to rate this tab
# A B C D E F G H I J K L M N O P Q R S T U V W X Y Z