Song name
# A B C D E F G H I J K L M N O P Q R S T U V W X Y Z

Stone Temple Pilots - Maver tab

Stone Temple Pilots - "Maver"
From "Stone Temple Pilots" 2010 album
Standard Tuning - acoustics/Electrics
Tabbed by jjhand


I wrote the main riff part for capo and without, since a capo makes 
playing it easier. Most of the song's acoustic parts can be played 
using the capo, if desired. Please rate/comment.


Acoustic Main Riff
e|-3-----3-2-----3-0-----3-2-----3-|-------3-------3-------3-2----|
B|-----3-------3-------3-------3---|-5---3---5---3---5---3---1----|
G|---------------------------------|-------------------------2----|
D|---------------------------------|------------------------------|
A|---------------------------------|------------------------------|
E|---------------------------------|------------------------------|
   G       Gmaj7   G6      Gmaj7     C                       D7


Acoustic Intro w/ capo on 3rd fret (same part as above)
g|-0-----0-------0-------0-------0-|-------0-------0-------0------|
D|-----0---4---0---2---0---4---0---|-2---0---2---0---2---0---4----|
B|---------------------------------|-------------------------2----|
F|---------------------------------|-------------------------4----|
C|---------------------------------|------------------------------|
G|---------------------------------|------------------------------|



Verse - Play intro with lyrics

"Maver with her lucky bonnet
She used to paint her flowers on it
She keeps her memories on a turnstile
'Cause she's superstitious
She thought she'd be famous
And tell me if I'm wrong
But her picture should distract some playmen
Yeah maybe you'll be lucky enough
To hear her sing on Sunday"



Verse Ending (written for standard Acoustic)

   F#dim7                G
e|-----------5----8----|-----------------------|
B|------7----7----7----|-8----8----8--8--8--8--|
G|-5----5----5----5----|-7----7----7--7--7--7--|
D|-7----7--------------|-5----5----5--5--5--5--|
A|-6-------------------|-----------------------|
E|---------------------|-----------------------|
 "Oh                   Maver"




Chorus - play 4x 
e|----------------------------|
B|--8-----7-----5-----5---5---|
G|--7-----7-----5-----5---5---|
D|--5-----7-----5-----5---5---|
A|-(2)---(5)---(3)------------|
E|----------------------------|
   notes in () are electric guitar

1. "Maver and her bonnet"
2. "Strings the flag upon it"
3. "Betting on the bonnet... Supposed to get "
4. "Easier...   She's playing on the"




Play Intro Again 2x - Lyrics

"easy piece for her"
"Oh Maver"

Verse 2- Play Main Riff & sing lyrics:

"She was a true blue bird, A traveler
She left her home post for the West Coast
With a guitar and a bar of soap for 'ole San Francisco
and a foolhearted head hole.
Well she landed in a flat with some fellas that were lucky to meet her
'Cause she can play the six-string better than
This much you can bet her"



Play Verse Ending again as before


Play Chorus Again


Bridge - Electric, Solo electric part is marked by ()

   Cmaj7           D             
e|---------------|--------(12\7)--------|----------|
B|-5-------------|-7---------|--5-------|-7--------|
G|-4-------------|-7---------|--4-------|-7--------|
D|-5-------------|-7---------|--5-------|-7--------|
A|-3-------------|-5---------|--3-------|-5--------|
E|---------------|-----------|----------|----------|


Lyrics:
 "How many nights did you make it without it?  Oh"
 "How many lines on your face can take away your stone? No"





Slide Solo - starts at very end of Bridge part 

e|----12--14----------------------|------------------------|---------------|
B|-12---------15\12-12/15~~-------|------------------------|---------------|
G|--------------------------------|-/16-14-12-14\9-----7PH-|-7-------------|
D|--------------------------------|------------------------|------------9--|
A|--------------------------------|------------------------|---------------|
E|--------------------------------|------------------------|---------------|
 |
 | Rhythm
e|--------------------------------|------------------------|---------------|
B|-8--------7-------5-------7-----|-5-----5-----5-----7----|-8-------------|
G|-7--------7-------7-------7-----|-5-----5-----5-----5----|-7---same as---|
D|-5--------5-------5-------5-----|-5-----5-----5-----7----|-5---before----|
A|--------------------------------|------------------------|---------------|
E|--------------------------------|------------------------|---------------|


   solo
e|--------------------12-|-14--------------12--14-15-|-14b15r-12~---15~/17-|
B|------------------12---|-----15--12~--12-----------|---------------------|
G|-----0----/12~---------|---------------------------|---------------------|
D|-7-9-------------------|---------------------------|---------------------|
A|-----------------------|---------------------------|---------------------|
E|-----------------------|---------------------------|---------------------|
 |
 | Rhythm
e|-----------------------|---------------------------|-5----5----5----7----|
B|-5----5----5----7------|-8-----8-----8-----8-------|-7----7----7----7----|
G|-5----5----5----5------|-7-----7-----7-----7-------|-5----5----5----5----|
D|-5----5----5----7------|-5-----5-----5-----5-------|-7----7----7----7----|
A|-----------------------|---------------------------|---------------------|
E|-----------------------|---------------------------|---------------------|


   solo
e|-15-14-15-------------------------|---------------------|
B|----------15\12--12/15~----15-/12-|---------------------|
G|----------------------------------|-14--12--11~-----/11-|
D|----------------------------------|---------------------|
A|----------------------------------|---------------------|
E|----------------------------------|---------------------|
 |
 | Rhythm
e|----------------------------------|-----------5----8----|
B|-8---------8------8-------8-------|------7----7----7----|
G|-7---------7------7-------7-------|-5----5----5----5----|
D|-5---------5------5-------5-------|-7----7--------------|
A|----------------------------------|-6-------------------|
E|----------------------------------|---------------------|


   solo
e|----------------------10____\7~~-|
B|----------------12\10------------|
G|----12\11-14\12------------------|
D|-14------------------------------|
A|---------------------------------|
E|---------------------------------|
 |
 | Rhythm
e|---------------------------------|
B|-8--------8------8-------8-------|
G|-7--------7------7-------7-------|
D|-5--------5------5-------5-------|
A|---------------------------------|
E|---------------------------------|




  Acoustic Bridge Reprise

Acoustic 1

   G   D/F#  C/E                
e|-3----2----0----0---0-0-0-|-3----2----0----0---0-0-0-------|
B|-3----3----1----1---1-1-1-|-3----3----1----1---1-1-1-------|
G|-0----2----0----0---0-0-0-|-0----2----0----0---0-0-0-------|
D|-0----0----2----0h2-2-2-2-|-0----0----2----0h2-2-2-2-------|
A|-----------3----3---3-3-3-|-----------3----3---3-3-3-------|
E|-3----2----0--------------|-3----2----0--------------------|
 |
 | Acoustic
e|-3------------------------|-3------------------------10-12-|
B|-3----7----5--------------|-3----7----5--------------------|
G|-4----7----5--------------|-4----7----5--------------------|
D|-5----7----5--------------|-5----7----5--------------------|
A|------5----3--------------|------5----3--------------------|
E|--------------------------|--------------------------------|




Play Bridge Chords Again - Lyrics

    Cmaj7                       D
 
"How many nights did you make it without it?  Oh"
"How many lines on your face can take away your stone? No"




Play Chorus Again & repeat with ad-libs to end song

Electric Adds in Lead part, repeat with fade out
e|---------------------------|-----------------|
B|---------------------------|-----------------|
G|-------------/7~-----------|-----------------|
D|---/9--9-7-5------9--9-7-5-|-7-9~~-----------|
A|---------------------------|-----------------|
E|---------------------------|-----------------|




KEY
| /  slide up
| \  slide down
| h  hammer-on
| p  pull-off
| ~  vibrato
| +  harmonic
| x  Mute note
Tap to rate this tab
 
# A B C D E F G H I J K L M N O P Q R S T U V W X Y Z