Song name
# A B C D E F G H I J K L M N O P Q R S T U V W X Y Z

Stone Temple Pilots - All In The Suit That You Wear tab

Song: All in the Suit that You Wear (Album Version)
Album: Thank You
Artist: Stone Temple Pilots

There are two guitar tracks to this song: One is the main heavy riff, and the second is 
picking track played over it. You could play the second guitar track in either drop D or 
standard tuning, since the low E string is not used.
Intro (Guitar 2)
e-----------------------------------------------------------------|
B---------6--5--6~---------6--5--6~-------6--5--6~------6--5--6~--|
G------5----------------5--------------5-------------5------------|
D---0----------------0--------------0-------------0---------------|
A-----------------------------------------------------------------|
E-----------------------------------------------------------------|

Main Riff (Guitar 1)  "Hey you..."

e--------------------------------------------------------|
B--------------------------------------------------------|
G--------------------------------------------------------|   x8
D--0-x---12~s3--0-0-x--12-11b12--------------------------|
A--0-x---12~s3--0-0-x--12-11b12--------------------------| (late bend)
D--0-x---12~s3--0-0-x--12-11b12--------------------------|

After the 4th time of of the main riff, Guitar 2 comes in again

e-----------------------------------------------------------------|
B---------6--5--6~---------6--5--6~-------6--5--6~------6--5--6~--|
G------5----------------5--------------5-------------5------------|
D---0----------------0--------------0-------------0---------------|  x2
A-----------------------------------------------------------------|
E-----------------------------------------------------------------|

Bridge

e----------------------------|
B----------------------------|
G----------------------------|
D----------------------------|
A---3--5-0-3-5-3-0-----------|
D---3--5---------------------|

Verse 2 (Guitar 1)

e---------0--0-0-----------0--0-0---------------------(0)~---|
B---------3--3-3-----------3--3-3----------------------3~----|
G--1b2----2--2-2----1b2----2--2-2----------------------0~----|  x2
D--0----------------0----------------------------------5~----|
A------------------------------------3--5-0-3-5-3-0----5~----|
D------------------------------------3--5--------------5~----|

Verse 3 (Guitar 1)
e----------------------------------------------------------------------------|
B----------------------------------------------------------------------------|
G----------------------------------------------------------------------------|
D--8-8-8-8-8-8-8-8s-10-10-10-10-10-10-10-10--0--12-12s3-5-3--0--12-12s3--5-3-|
A--8-8-8-8-8-8-8-8s-10-10-10-10-10-10-10-10--0--12-12s3-5-3--0--12-12s3--5-3-|
D--8-8-8-8-8-8-8-8s-10-10-10-10-10-10-10-10--0--12-12s3-5-3--0--12-12s3--5-3-|

e---------------------------------------------------------------------------|
B---------------------------------------------------------------------------|
G---------------------------------------------------------------------------|
D--8-8-8-8-8-8-8-8s-9--9--9--9--9--9--9--9---0-12-12s3-5-3-0--12-12s3-5-3---|
A--8-8-8-8-8-8-8-8s-10-10-10-10-10-10-10-10--0-12-12s3-5-3-0--12-12s3-5-3---|
D--8-8-8-8-8-8-8-8s-9--9--9--9--9--9--9--9---0-12-12s3-5-3 0--12-12s3-5-3---|
Then one more time before returning to the main riff
e--------------------------------------------|
B--------------------------------------------|
G--------------------------------------------|
D--8-8-8-8-8-8-8-8s-10-10-10-10-10-10-10-10--|
A--8-8-8-8-8-8-8-8s-10-10-10-10-10-10-10-10--|
D--8-8-8-8-8-8-8-8s-10-10-10-10-10-10-10-10--|


Verse 3 (Guitar 2)  This is started at the first chord of Verse 3, Guitar 1

e--------------------------------------------------------------|
B-------3---------------5-------------6-5-6-----6-5-6----------|
G-----0---0-----------0---0---------5---------5----------------|
D---3-------3-------5-------5-----0---------0------------------|
A-1-----------1---3----------3---------------------------------|
E--------------------------------------------------------------|

e--------------------------------------------------------------|
B-------3---------------1-------------6-5-6-----6-5-6----------|
G-----0---0-----------0---0---------5---------5----------------|
D---3-------3-------3-------3-----0---------0------------------|
A-1-----------1---2----------2---------------------------------|
E--------------------------------------------------------------|

e-----------------------------------0-----------|
B-------3---------------5-----------3-----------|
G-----0---0-----------0---0---------2-----------| End on Dsus chord
D---3-------3-------5-------5-------------------|
A-1-----------1---3----------3------------------|
E-----------------------------------------------|

This structure repeats itself one more time, then goes into a spacey bridge which is the 
as the intro:

e-----------------------------------------------------------------|
B---------6--5--6~---------6--5--6~-------6--5--6~------6--5--6~--|
G------5----------------5--------------5-------------5------------|
D---0----------------0--------------0-------------0---------------|
A-----------------------------------------------------------------|
E-----------------------------------------------------------------|

After that, Verse 3 is played again. Then the outro comes in:

e----------------------------------|
B----------------------------------|
G----------------------------------|
D-0--12--12s3-5-3--0-12--12s3-5-3--|  x3
A-0--12--12s3-5-3--0-12--12s3-5-3--|
D-0--12--12s3-5-3--0-12--12s3-5-3--|

e--------------------|
B--------------------|
G--------------------|
D-0--12--12s3-5-3--0-|
A-0--12--12s3-5-3--0-|
D-0--12--12s3-5-3--0-|

There you have it. Please email me if you have any questions, and I'm open to suggestions
Tap to rate this tab
 
# A B C D E F G H I J K L M N O P Q R S T U V W X Y Z