Stone Temple Pilots - First Kiss On Mars tab

#----------------------------------PLEASE NOTE--------------------------------#
#This file is the author's own work and represents their interpretation of the#
#song. You may only use this file for private study, scholarship, or research.#
#-----------------------------------------------------------------------------#
#-- File created with Instab - http://www.pconline.com/~smcarey/instab.html --#
#-----------------------------------------------------------------------------#

Author/Artist: Stone Temple Pilots
Title: First Kiss On Mars
Transcribed by: Saverain

b bend
r release bend
/ slide up
\ slide down
p pull off
h hamme on

Standard Tuning

E------|------------------3--7-7--7---|----------------------------------------|
B------|------------------0--8-8--8---|----------------------------------------|
G------|------------------------------|----------------------------------------|
D------|-4b5r4------------------------|----------------------------------------|
A------|-------7-5-5\2----------------|----------------------------------------|
E------|---------------3--------------|----------------------------------------|
   Intro/Chorus

E------|------3----|--|-3---------3--|-----------------------------------------|
B------|-1----0----|--|-0----1----0--|-----------------------------------------|
G------|-0----0----|--|-0----0----0--|-----------------------------------------|
D------|-2----0----|2x|-0----2----0--|-----------------------------------------|
A------|-3----x----|--|-x----3----x--|-----------------------------------------|
E------|-3----3----|--|-3----3----3--|-----------------------------------------|
   Verse Chords       "Can we really.."

E------|--------------------10----------------------12-15--p14p12--------------|
B------|-10--12p10----10-12----12-12v-10----10-12v----------------15--14p12p10-|
G------|-----------12--------------------12------------------------------------|
D------|-----------------------------------------------------------------------|
A------|-----------------------------------------------------------------------|
E------|-----------------------------------------------------------------------|
    Solo

------------------------------12-15--15-17--------12--------12-15/17\15-------|
-12--12\8-\----------------15--------------15--15--------15-------------------|
-----------------------------------------------------14-----------------------|
-----------------5h7p5-7/9----------------------------------------------------|
-------------5-7--------------------------------------------------------------|
------------------------------------------------------------------------------|


-17----17-19----|-------------------------------------------------------------|
----20----------|-------------------------------------------------------------|
----------------|-------------------------------------------------------------|
----------------|-------------------------------------------------------------|
----------------|-------------------------------------------------------------|
----------------|-------------------------------------------------------------|
Tap to rate this tab
 
# A B C D E F G H I J K L M N O P Q R S T U V W X Y Z