Stone Temple Pilots - Cinnamon tab

Stone Temple Pilots - Cinnamon
From 'Stone Temple Pilots' 2010 Album
Standard Tuning, mild distortion
tabbed by jjhand



Intro

  Guitar 1
e|-9----7---------------|-----------------|
B|-----------9--7-------|-----------------|
G|-----------------9----|-(9)-------------|
D|----------------------|-----------------|
A|----------------------|-----------------|
E|----------------------|-----------------|
 |
 | Guitar 2 
e|-0------0--0-------0--|-0------0--0----------|
B|-2------2--2-------0--|-0------0--0------*-*-|
G|-2------2--2-------1--|-1------1--1------2-2-| 
D|-2------2--2-------2--|-2------2--2------2-2-|
A|-0------0--0-------2--|-2------2--2------0-0-|
E|-------------------0--|-0------0--0----------|
  * slight mutes on last 2 chords



Verse - play 4x, when playing E's mute A string with your free finger

e|-------------------|--------------------|-------------------|--------------|
B|-------------------|------------0-------|-------------------|-----0--------|
G|-------------------|--------------------|-------------------|--------------|
D|-4--6----4--6----4-|-6----4--6----------|-4--6----4--6----4-|-6h7----------|
A|-0--0----0--0----0-|-0----0--0----------|-x--x----x--x----x-|-x------------|
E|-------------------|--------------------|-0--0----0--0----0-|-0------------|

"I'd like to sing a story for you  Here's what I'd sing if I could impress you"

"Hear me can you hear me? Hear me can you hear me? Hear me can you hear me now?"

"You've got to be the prettiest girl I've ever witnessed in the whole world"

"Hear me can you hear me? Hear me can you hear me? Hear me can you hear me now?"





Prechorus

e|-0----------0-------|-0----------0-------|-0----------0-------|-0-------0-----|
B|-4----4-----------4-|-4----4-----------4-|-4----4-----------4-|-4---4-------4-|
G|-4-------4------4---|-4-------4------4---|-4-------4------4---|-4-----4---4---|
D|-4------------------|-4------------------|-4------------------|-4-------------|
A|-2------------------|-0------------------|-x------------------|-2-------------|
E|--------------------|--------------------|-0------------------|---------------|

1.       "We   both   talk  about  love    We  both know about love"
2.       "We both sing the songs Can you hear me can you hear me now?"




Chorus - Play Intro Riff

"Yeah, come on come on now" 






Verse 2 - Same as 1st, Lyrics are:

"I'd like to write a story for you
with a little melody pretty for you
Hear me can you hear me?
Hear me can you hear me?
Hear me can you hear me now?

Never condescend to you, my dear
Always speak the words so lovely to hear
Hear me can you hear me?
Hear me can you hear me?
Hear me can you hear me now?"



Play Prechorus, Chorus again



Bridge (2:15)
e|-4------4--4------5--|-5------5--5------0--|-0------0--0---------|
B|-5------5--5------5--|-5------5--5------0--|-0------0--0------4--|
G|-6------6--6------6--|-6------6--6------1--|-1------1--1------4--|
D|-6------6--6------7--|-7------7--7------2--|-2------2--2------4--|
A|-4------4--4------7--|-7------7--7------2--|-2------2--2------2--|
E|------------------5--|-5------5--5------0--|-0------0--0---------|
           "Where did you come from?                Where are you"


e|-2------2--2------4--|-4------4--4------5--|-5------5--5------2--|
B|-4------4--4------5--|-5------5--5------5--|-5------5--5------2--|
G|-4------4--4------6--|-6------6--6------6--|-6------6--6------3--|
D|-4------4--4------6--|-6------6--6------7--|-7------7--7------4--|
A|-2------2--2------4--|-4------4--4------7--|-7------7--7------4--|
E|---------------------|------------------5--|-5------5--5------2--|
 "now?                      Just like an angel" 


e|-2------2--2------2--|-2------2--2---2---2--|
B|-2------2--2------2--|-2------2--2---2---2--|
G|-3------3--3------3--|-3------3--3---3---3--|
D|-4------4--4------4--|-4------4--4---4---4--|
A|-4------4--4------4--|-4------4--4---4---4--|
E|-2------2--2------2--|-2------2--2---2---2--|
 "Seems like you left me when you broke down" 



Solo (with Main Riff played on rhythm guitar)

e|----------7----------|----------------------|------7----------|
B|-7b9r7b9-----7b9r7-5-|-5b7-5b7~---5b7r5-----|-7b9-----7b9r7---|
G|---------------------|------------------6-4-|---------------6-|
D|---------------------|----------------------|-----------------|
A|---------------------|----------------------|-----------------|
E|---------------------|----------------------|-----------------|


e|-----------------|------7----------|----------------------|
B|-5b7~~~----7b9r7_|_7b9-----7b9r7---|-5b7-5b7~---5b7r5-----|
G|-----------------|---------------6-|------------------6-4-|
D|-----------------|-----------------|----------------------|
A|-----------------|-----------------|----------------------|
E|-----------------|-----------------|----------------------|


e|-------9--12b14---9------9-|------------------------|
B|-/9-12--------------12p9---|-12b14~----12~~~~~------|
G|---------------------------|------------------------|
D|---------------------------|------------------------|
A|---------------------------|------------------------|
E|---------------------------|------------------------|


Ending - Repeat chorus several times and fade


KEY
| /  slide up
| \  slide down
| h  hammer-on
| p  pull-off
| ~  vibrato
| +  harmonic
| x  Mute note
Tap to rate this tab
 
# A B C D E F G H I J K L M N O P Q R S T U V W X Y Z