Stone Temple Pilots - Tumble In The Rough tab

Song: Tumble in the Rough
Album: Tiny Music...songs from the Vatican Gift Shop


Intro (Play moderately fast, same tempo throughout)
e------------------------------------------------------------------------|
B------------------------------------------------------------------------|
G------------------------------------------------------------------------|
D--2-0-2-3-2-0-2--0-0--0-2-3-2-0-2--0-0--0-2-0-3-2-0--0-0--0-2-3-2-0-2---|
A--1-1-1-1-1-1-1--3-1--1-1-1-1-1-1--3-1--1-1-1-1-1-1--3-1--1-1-1-1-1-1---|
E--3-3-3-3-3-3-3--3-3--3-3-3-3-3-3--3-3--3-3-3-3-3-3--3-3--3-3-3-3-3-3---|

Verse 1
e--------------x-x-x-x-x-x-x-x-x-x----------------------------------x-x--|
B--------------x-x-x-x-x-x-x-x-x-x----------------------------------x-x--|
G--------------x-x-x-x-x-x-x-x-x-x----------------------------------x-x--|
D--5-5-5s8-8-8-x-x-x-x-x-x-x-x-x-x-5-5--5-5--8-8-8------------------x-x--|
A--5-5-5s8-8-8-x-x-x-x-x-x-x-x-x-x-5-5--5-5--8-8-8------------------x-x--|
E--3-3-3s6-6-6-x-x-x-x-x-x-x-x-x-x-3-3--3-3--6-6-6---/15\-/12\-15\--x-x--|

Dean does a lot of variations during "Verse 1," so you cannot keep it uniformed for the 
song. Experiment with combinations of kills, slides, and timings. Some interpreted variations:

e---------------x-x-x-x-x-x-x-x-x-x------------------x--x--x--x--x-----|
B---------------x-x-x-x-x-x-x-x-x-x------------------x--x--x--x--x-----|
G---------------x-x-x-x-x-x-x-x-x-x------------------x--x--x--x--x-----|
D-5-5-5-5-8-8-8-x-x-x-x-x-x-x-x-x-x-5-5--5-5--8-8-8--x--x--x--x--x-----|
A-5-5-5-5-8-8-8-x-x-x-x-x-x-x-x-x-x-5-5--5-5--8-8-8--x--x--x--x--x-----|
E-3-3-3-3-6-6-6-x-x-x-x-x-x-x-x-x-x-3-3--3-3--6-6-6--x--x--x--x--x-----|

e---------------x---x--x-----------------------------------------------|
B---------------x---x--x------------<5vb>------------------------------|
G---------------x---x--x------------<5vb>------------------------------|
D-5-5-5-5-8-8-8-x---x--x-----------------------------------------------|
A-5-5-5-5-8-8-8-x---x--x-----------------------------------------------|
E-3-3-3-3-6-6-6-x---x--x--15\------------------------------------------|

e---------------x-x-x-x-x-x-x-x-x-x----------------------------------|
B---------------x-x-x-x-x-x-x-x-x-x----------------------5h6--<5vb>--|
G---------------x-x-x-x-x-x-x-x-x-x---------------------------<5vb>--|
D-5-5-5-5-8-8-8-x-x-x-x-x-x-x-x-x-x-5-5--5-5--8-8-8------------------|
A-5-5-5-5-8-8-8-x-x-x-x-x-x-x-x-x-x-5-5--5-5--8-8-8------------------|
E-3-3-3-3-6-6-6-x-x-x-x-x-x-x-x-x-x-3-3--3-3--6-6-6--15/-------------|

Chorus "I can't move, can't sleep..."

e------------------------------------------------------------------------|
B------------------------------------------------------------------------|
G------------------------------------------------------------------------|
D--2-0-2-3-2-0-2--0-0--0-2-3-2-0-2--0-0--0-2-0-3-2-0--0-0--0-2-3-2-0-2---| x2
A--1-1-1-1-1-1-1--3-1--1-1-1-1-1-1--3-1--1-1-1-1-1-1--3-1--1-1-1-1-1-1---|
E--3-3-3-3-3-3-3--3-3--3-3-3-3-3-3--3-3--3-3-3-3-3-3--3-3--3-3-3-3-3-3---|

Verse 1

e---------------x-x-x-x-x-x-x-x-x-x------------------x--x--x--x--x-----|
B---------------x-x-x-x-x-x-x-x-x-x------------------x--x--x--x--x-----|
G---------------x-x-x-x-x-x-x-x-x-x------------------x--x--x--x--x-----|
D-5-5-5-5-8-8-8-x-x-x-x-x-x-x-x-x-x-5-5--5-5--8-8-8--x--x--x--x--x-----| x 2
A-5-5-5-5-8-8-8-x-x-x-x-x-x-x-x-x-x-5-5--5-5--8-8-8--x--x--x--x--x-----|
E-3-3-3-3-6-6-6-x-x-x-x-x-x-x-x-x-x-3-3--3-3--6-6-6--x--x--x--x--x-----|

Verse 2

e--------------------------------------------------------------------------|
B--------------------------------------------------------------------------|
G--------------------------------------------------------------------------|
D--8-8-8-8-8-8-8-8-8-8-8-8-8-8-8-8--9--10-10-10-10-10-10-10-10-10-10-10-10-|
A--8-8-8-8-8-8-8-8-8-8-8-8-8-8-8-8--9--10-10-10-10-10-10-10-10-10-10-10-10-|
E--6-6-6-6-6-6-6-6-6-6-6-6-6-6-6-6--7--8--8--8--8--8--8--8--8--8--8--8--8--|

e---------------------------------|
B---------------------------------|
G---------------------------------|
D-10-10-10-10---------------------|
A-10-10-10-10---------------------|
E-8--8--8--8--8\------------------|


[Verse 1]

[Chorus]

[Verse 1]

[Verse 2]

[Verse 1]


Verse 3

e----------------------------------|
B-----------------------5vb~~------|
G-----------------------5vb~~------|
D----------------------------------| x 4
A-----1-----1-----1----------------|
E-3-3---1-1---0-0------------------|

Solo: (G Minor Scale, thanks to Jimmy/Jimi for guidelines)

e-------------------------------------------------------------------------|
B--5~-----6~-------8-------6------5~--------3-----------------------------|
G--7b9~---8b10~---10b12---8b10---7b9~---5b7---5b7r5-3--5h7---5b6--3-5b7-3-|
D-----------------------------------------------------5-------------------|
A-------------------------------------------------------------------------|
E-------------------------------------------------------------------------|

e-----------------------------------------13-------13--------------13-----|
B-----------------------11-------13----13----13h15----------13h15---------|
G-----------10-12-10h12----12s14----12------------------------------------|
D-8h10r8------------------------------------------------------------------|
A-------------------------------------------------------------------------|
E-------------------------------------------------------------------------|

e--------13--------13---------|
B--13h15-----13h15------------|
G-----------------------------| Repeat lick until 2:55
D-----------------------------|
A-----------------------------|
E-----------------------------|

e--------------------------------------------------------15---|
B--15----------------------------17b19--------------15-18-----|
G--17b19r17-15-----17b19--17~----17b19---15-------17----------|
D---------------17--------------------------17-15-------------|
A-------------------------------------------------------------|
E-------------------------------------------------------------|

Outro

e------------------------------------------------------------------------|
B------------------------------------------------------------------------|
G------------------------------------------------------------------------|
D--2-0-2-3-2-0-2--0-0--0-2-3-2-0-2--0-0--0-2-0-3-2-0--0-0--0-2-3-2-0-2---|
A--1-1-1-1-1-1-1--3-1--1-1-1-1-1-1--3-1--1-1-1-1-1-1--3-1--1-1-1-1-1-1---|
E--3-3-3-3-3-3-3--3-3--3-3-3-3-3-3--3-3--3-3-3-3-3-3--3-3--3-3-3-3-3-3---|
Tap to rate this tab
 
# A B C D E F G H I J K L M N O P Q R S T U V W X Y Z