Song name
# A B C D E F G H I J K L M N O P Q R S T U V W X Y Z

Stone Temple Pilots - Interstate Love Song chords

Highlighted       Show chord diagrams
stone Temple pilots - interstate love song
by Andrés Fuenzalida
This is my first one

      C#m E   A  Asus2 G# c#5 C/5+  B5  A#/5+ Esus4 F#m7add11
e|-----4--0--0-5---0---4---x----x----x----x-----0-------0-----------|
B|-----5--0--2-5---0---4---x----x----x----x-----0-------0-----------|
G|-----6--1--2-6---2---5---x----x----x----x-----2-------2-----------|
D|-----6--2--2-7---2---6---6----6----4----4-----2-------4-----------|
A|-----4--2--0-7---0---6---4----3----2----1-----2-------4-----------|
E|-----4--0--0-5---0---4---x----x----x----x-----0-------0-----------|

the intro has 2 guitars one doit de rhythm and the another the melody

Intro: C#m E A Asus2 G# A E
 
  C#m     E                A    Asus2 G#               A          E    guitar 2
e|--------------------------------|-----------------------------------|
B|--------------------------------|-----------------------------------|
G|--------------------------------|-----------------------------------|guitar 1
D|--11~---9--11--9----------------|----------10---13---13b(14)--11~---|
A|------------------11-----9>-7~--|---9--11---------------------------|
E|--------------------------------|-----------------------------------|

Pre verse

                          E    E  Esus4 E    E             E F#m7add11 E
e|----------------------0-0-||--0-0-0-0---|-0-0-0-0-0-0-|--0-0-0-0--|-0-0-0-0-0-0-|
B|--2s3--2--0-----------0-0-||--0-0-0-0---|-0-0-0-0-0-0-|--0-0-0-0--|-0-0-0-0-0-0-|
G|-------------2---1h2----1-||--1-2-2-1---|-1-1-1-1-1-1-|--1-2-2-1--|-1-1-1-1-1-1-|
D|------------------------2-||--2-2-2-2---|-2-2-2-2-2-2-|--2-4-4-2--|-2-2-2-2-2-2-| X2
A|------------------------2-||--2-2-2-2---|-2-2-2-2-2-2-|--2-4-4-2--|-2-2-2-2-2-2-|
E|------------------------0-||--0-0-0-0---|-0-0-0-0-0-0-|--0-0-0-0--|-0-0-0-0-0-0-|

Verse

c#5     C/5+
waiting on a Sunday afternoon
B5                          A#/5+
for what I read between the lines,
   A         E  Esus4 E F#m7add11 E
your lies.

c#5     C/5+
feelin' like a hand in rusted shame
B5                          A#/5+
so do you laugh at those who cry?
   A         E  Esus4 E F#m7add11 E
reply?

(Pre verse)
                          E    E  Esus4 E    E             E F#m7add11 E
e|----------------------0-0-||--0-0-0-0---|-0-0-0-0-0-0-|--0-0-0-0--|-0-0-0-0-0-0-|
B|--2s3--2--0-----------0-0-||--0-0-0-0---|-0-0-0-0-0-0-|--0-0-0-0--|-0-0-0-0-0-0-|
G|-------------2---1h2----1-||--1-2-2-1---|-1-1-1-1-1-1-|--1-2-2-1--|-1-1-1-1-1-1-|
D|------------------------2-||--2-2-2-2---|-2-2-2-2-2-2-|--2-4-4-2--|-2-2-2-2-2-2-| 
A|------------------------2-||--2-2-2-2---|-2-2-2-2-2-2-|--2-4-4-2--|-2-2-2-2-2-2-|
E|------------------------0-||--0-0-0-0---|-0-0-0-0-0-0-|--0-0-0-0--|-0-0-0-0-0-0-|

C#m          E
leavin' on a southern train
A              Asus2 G#    
only yesterday       you lied,
A                E
promises of what I seemed to be
A                    Asus2 G#
only watched the time      go by,
A                   E
all of these things you said to me.

(Pre verse)

c#5       C/5+
breathing is the hardest thing to do.
B5                
with all I've said and
A#/5+
all that's dead for you,
A        E  Esus4 E
you lied  
A        E  Esus4 E F#m7add11 E
good bye



C#m          E
leavin' on a southern train
A              Asus2 G#    
only yesterday       you lied,
A                E
promises of what I seemed to be
A                    Asus2 G#
only watched the time      go by,
A                   E
all of these things I said to you. 

                          E    E  Esus4 E    E             E F#m7add11 E
e|----------------------0-0-||--0-0-0-0---|-0-0-0-0-0-0-|--0-0-0-0--|
B|--2s3--2--0-----------0-0-||--0-0-0-0---|-0-0-0-0-0-0-|--0-0-0-0--|
G|-------------2---1h2----1-||--1-2-2-1---|-1-1-1-1-1-1-|--1-2-2-1--|
D|------------------------2-||--2-2-2-2---|-2-2-2-2-2-2-|--2-4-4-2--|
A|------------------------2-||--2-2-2-2---|-2-2-2-2-2-2-|--2-4-4-2--|
E|------------------------0-||--0-0-0-0---|-0-0-0-0-0-0-|--0-0-0-0--|

Tap to rate this tab
 
# A B C D E F G H I J K L M N O P Q R S T U V W X Y Z