Song name
# A B C D E F G H I J K L M N O P Q R S T U V W X Y Z

Stone Temple Pilots - Bagman tab

"Bagman"
Stone Temple Pilots
Stone Temple Pilots
Open G Tuning (DGDGBD)

This is defanitly not STP's best, but has an awesome guitar part and solo.

KEY
h= hammer on
p= pull off
/= slide
\= slide
~= vibrato or let ring
_= hold
b= bend
r= release
[]- natural harmonic

MAIN RIFF (Play 4x)
d|-3--3---2--3------------------------|
B|-3--3---1--3----1/3--3--------------|
G|-0--0---0--0----2/4--4--------------|
D|-0--0---0--0----3/5--5------------0-|
G|----------------0---------5-7-5-7-0-|
D|--------------------------3-5-3-5---|

"Bagman honey, bagman sugar..."

VERSE (Play 4x)
d|---------------------------|
B|---------------------------|
G|---------------------------|
D|-7--7--5-7--7-7--5-7-5-7-5-|
G|-7--7--5-7--7-7--5-7-5-7-5-|
D|---------------------------|

"I know it feels good, but be careful with your vices..."

PLAY MAIN RIFF AGAIN 4X "Bagman honey, bagman sugar..."

PLAY VERSE AGAIN 4X "We almost got it right, conversation..."

PLAY MAIN RIFF AGAIN 4X "Bagman honey, bagman sugar..."

BRIDGE (Play 3x)            B
d|------------------------|-3---3-----3--|
B|------------------------|-3---3-----3--|
G|----------------------0-|-3---3-----3--|
D|-------------------7----|-3---3-----3--|
G|-----7-10~-------7------|-3---3-----3--|
D|-7/8---------8/9--------|-3---3-----3--|

"Then, there was a dream, where we said we would be free..."

SOLO
d|---------------------------------------------------|
B|-----------------------------------1--1-1-0h1p0----|
G|---0-2-------------------0-2---0----------------2~-|
D|-3-----3--0------------3-----3---------------------|
G|---------------------------------------------------|
D|---------------------------------------------------|

d|---------------------------------------------------------------------|
B|-3-1h3p1p0-1-0h1p0---0-----------------------------------------------|
G|-------------------2---2-0h2p0---------------------------------0h2-0-|
D|-------------------------------3-2h3p2p0---0-2-2b3-2b3-2b3r2-0-------|
G|---------------------------------------------------------------------|
D|---------------------------------------------------------------------|

d|----------------------------------------------------------------|
B|---5-5b6-5b6-5b6r5-5h6p5p0-6b7--6b7--------5-5b6-5b6-5b6r5------|
G|-7----------------------------------7~---7-----------------7-7~-|
D|----------------------------------------------------------------|
G|----------------------------------------------------------------|
D|----------------------------------------------------------------|

d|---------------------------------------------------------|
B|-6h8-6h8p6\5-6-5---5-------------------------------------|
G|-----------------7---7---------4-4-5-4-5p4p0---0----[3]--|
D|-------------------------7-5---3______-------3-----------|
G|---------------------------------------------------------|
D|---------------------------------------------------------|

d|----------------------14------------14-14b15r14---14b15r14--|
B|----------12-------12----15~-----15---------------15b16r15--|
G|-12-12-14----12-12------------------------------------------|
D|------------------------------------------------------------|
G|------------------------------------------------------------|
D|------------------------------------------------------------|

d|------------------------------------------------------------|
B|-15-13-15b17r15-------12~----8-5h6p5---6-5---5--------------|
G|-------------------------------------7-----7---7--5-4-2-0---|
D|-----------------17\12__----------------------------------0-|
G|------------------------------------------------------------|
D|------------------------------------------------------------|

D|---------------------------|
B|---------------------------|
G|-0--2-4-5-4---0---0---[3]--|
D|----------------0----------|
G|---------------------------|
D|---------------------------|


CREDIT FOR SOLO GOES TO JJHAND, I LOOKED HIS TAB OVER AND ADDED/CHANGED SOME STUFF.

Please rate and comment!
Tap to rate this tab
 
# A B C D E F G H I J K L M N O P Q R S T U V W X Y Z