Song name
# A B C D E F G H I J K L M N O P Q R S T U V W X Y Z

Stone Temple Pilots - Plush tab

                                PLUSH
                (acoustic version from "Thank You" CD)

                       by: Stone Temple Pilots

                           Tabbed by: daws
                        daws@u.washington.edu


                         *******************
                         * / = slide up    *
                         * x = mute string *
                         *******************


 NOTE: actual cd version is tuned down two half-steps from standard
       tuning to: D G C F A D

 NOTE: INTRO, BRIDGE 2, and OUTRO are almost the same
       VERSES, CHORUSES and BRIDGES vary slightly
       CHORUS 2 only gets played once in this acoustic version
       
 (personal) NOTE: I wrote this tab because this is one of the best
                  songs out there, and it seems like all the
                  versions out there that i've seen fall a little
                  short... so... enjoy - any questions or comments
                  my email is up there ^



INTRO:

|3---3---x---3---|--------3---3-3-|3---3---x---3---|----3---3-3-3---|
|3---3---x---2---|--------2---2-2-|1---1---x---0---|----0---0-1-2---|
|0---0---x---3---|----3---3---3-3-|2---2---x---0---|----0---0-0-0---|
|0---0---x---0---|----0---0---0---|0---0---x---0---|----0---0-0-0---|
|----------------|----------------|----------------|----------------|
|----------------|----------------|----------------|----------------|




|3---3---x---3---|----------------|3---3---x---3---|------------x-3-|
|2/3-3---x---2---|----------------|1---1---x---0---|------------x-3-|
|0---0---x---3---|----------------|2---2---x---0---|------------x-0-|
|0---0---x---0---|----------------|0---0---x---0---|------------x-0-|
|----------------|----------------|----------------|------------x-2-|
|----------------|----------------|----------------|------------x-3-|




VERSE 1:

|3---3---x---x-0-|0---0---x-x-x-1-|1---1---x-x-x-0-|0---0---x-x-x-3-|
|3---3---x---x-3-|3---3---x-x-x-1-|1---1---x-x-x-1-|1---1---x-x-x-3-|
|0---0---x---x-2-|2---2---x-x-x-2-|2---2---x-x-x-0-|0---0---x-x-x-3-|
|0---0---x---x-0-|0---0---x-x-x-3-|3---3---x-x-x-2-|2---2---x-x-x-5-|
|2---2---x---x-0-|0---0---x-x-x-3-|3---3---x-x-x-3-|3---3---x-x-x-6-|
|3---3---x---x-2-|2---2---x-x-x-1-|1---1---x-x-x-0-|0---0---x-x-x---|

       and i feel...




|3---3---x-x-x-3-|3-3-x-3-x-1-1-1-|3---3---x-x-x-0-|0---0---x-x-x-1-|
|3---3---x-x-x-3-|3-3-x-3-x-1-1-1-|3---3---x-x-x-3-|3---3---x-x-x-1-|
|3---3---x-x-x-3-|3-3-x-3-x-2-2-2-|4---4---x-x-x-2-|2---2---x-x-x-2-|
|5---5---x-x-x-5-|5-5-x-5-x-3-3-3-|5---5---x-x-x-0-|0---0---x-x-x-3-|
|6---6---x-x-x-6-|6-6-x-6-x-3-3-3-|5---5---x-x-x-0-|0---0---x-x-x-3-|
|----------------|----------1-1-1-|3---3---x-x-x-2-|2---2---x-x-x-1-|

               so where...




|1---1---x-x-x-0-|0---0---x-x-x-3-|3---3---x-x-x-3-|3-3-x-3-x-1-1-1-|
|1---1---x-x-x-1-|1---1---x-x-x-3-|3---3---x-x-x-3-|3-3-x-3-x-1-1-1-|
|2---2---x-x-x-0-|0---0---x-x-x-3-|3---3---x-x-x-3-|3-3-x-3-x-2-2-2-|
|3---3---x-x-x-2-|2---2---x-x-x-5-|5---5---x-x-x-5-|5-5-x-5-x-3-3-3-|
|3---3---x-x-x-3-|3---3---x-x-x-6-|6---6---x-x-x-6-|6-6-x-6-x-3-3-3-|
|1---1---x-x-x-0-|0---0---x-x-x---|----------------|----------1-1-1-|

 these are...




BRIDGE 1:

|0---0-0-0---0-0-|--0-0---0-0-0-0-|0---0-0-0---0-0-|0-0-0---0-0-0-0-|
|3---3-3-3---3-3-|--3-3---3-3-3-3-|3---3-3-3---3-3-|3-3-3---3-3-3-3-|
|2---2-2-0---0-0-|--0-0---0-0-0-0-|2---2-2-0---0-0-|0-0-0---0-0-0-0-|
|0---0-0-2---2-0-|--0-2---2-2-2-2-|0---0-0-2---2-0-|0-0-2---2-2-2-2-|
|0---0-0-3---3-2-|--2-3---3-3-3-3-|0---0-0-3---3-2-|2-2-3---3-3-3-3-|
|----------------|----------------|----------------|----------------|

                            and i...




|0---0-0-0-0-0-0-|0-0-0---0-0-0-0-|0---0-0-0---0-0-|0-0-0---0-0-0-0-|
|3---3-3-3-3-3-3-|3-3-3---3-3-3-3-|3---3-3-3---3-3-|3-3-3---3-3-3-3-|
|2---2-2-0-0-0-0-|0-0-0---0-0-0-0-|2---2-2-0---0-0-|0-0-0---0-0-0-0-|
|0---0-0-2-2-2-0-|0-0-2---2-2-2-2-|0---0-0-2---2-0-|0-0-2---2-2-2-2-|
|0---0-0-3-3-3-2-|2-2-3---3-3-3-3-|0---0-0-3---3-2-|2-2-3---3-3-3-3-|
|----------------|----------------|----------------|----------------|

                            and i...




CHORUS 1:

|3---3---x-x-x-3-|3---3---x-x-x-1-|1---1---x-x-x-1-|1---1---x-x-x-3-|
|3---3---x-x-x-3-|3---3---x-x-x-1-|1---1---x-x-x-1-|1---1---x-x-x-3-|
|3---3---x-x-x-3-|3---3---x-x-x-2-|2---2---x-x-x-2-|2---2---x-x-x-3-|
|5---5---x-x-x-5-|5---5---x-x-x-3-|3---3---x-x-x-3-|3---3---x-x-x-5-|
|6---6---x-x-x-6-|6---6---x-x-x-3-|3---3---x-x-x-3-|3---3---x-x-x-6-|
|----------------|--------------1-|1---1---x-x-x-1-|1---1---x-x-x---|

                  where you...




|3---3---x-x-x-3-|3---3---x-x-x-1-|1---1---x-x-x-1-|1-1-x-1-x-1-1-1-|
|3---3---x-x-x-3-|3---3---x-x-x-1-|1---1---x-x-x-1-|1-1-x-1-x-1-1-1-|
|3---3---x-x-x-3-|3---3---x-x-x-2-|2---2---x-x-x-2-|2-2-x-2-x-2-2-2-|
|5---5---x-x-x-5-|5---5---x-x-x-3-|3---3---x-x-x-3-|3-3-x-3-x-3-3-3-|
|6---6---x-x-x-6-|6---6---x-x-x-3-|3---3---x-x-x-3-|3-3-x-3-x-3-3-3-|
|----------------|--------------1-|1---1---x-x-x-1-|1-1-x-1-x-1-1-1-|

                  where you...




|3---3---x-x-x-3-|3---3---x-x-x-1-|1---1---x-x-x-1-|1---1---x-x-x-3-|
|3---3---x-x-x-3-|3---3---x-x-x-1-|1---1---x-x-x-1-|1---1---x-x-x-3-|
|3---3---x-x-x-3-|3---3---x-x-x-2-|2---2---x-x-x-2-|2---2---x-x-x-3-|
|5---5---x-x-x-5-|5---5---x-x-x-3-|3---3---x-x-x-3-|3---3---x-x-x-5-|
|6---6---x-x-x-6-|6---6---x-x-x-3-|3---3---x-x-x-3-|3---3---x-x-x-6-|
|----------------|--------------1-|1---1---x-x-x-1-|1---1---x-x-x---|

           and i...




|3---3---x-x-x-3-|3---3---x-x-x-1-|1-------1-----1-|--------1-1-1---|
|3---3---x-x-x-3-|3---3---x-x-x-1-|1-------1-----1-|--------1-1-1---|
|3---3---x-x-x-3-|3---3---x-x-x-2-|2-------2-----2-|--------2-2-2-0-|
|5---5---x-x-x-5-|5---5---x-x-x-3-|3---3---3---3-3-|3-3-3-3-3-3-3-0-|
|6---6---x-x-x-6-|6---6---x-x-x-3-|3---3---3---3-3-|3-3-3-3-3-3-3---|
|----------------|--------------1-|1---1---1---1-1-|1-1-1-1-1-1-1---|

                  will she...




BRIDGE 2:

|3---3---x---3---|--------3---3-3-|3---3---x---3---|----3---3-3-3---|
|3---3---x---2---|--------2---2-2-|1---1---x---0---|----0---0-1-2---|
|0---0---x---3---|----3---3---3-3-|2---2---x---0---|----0---0-0-0---|
|0---0---x---0---|----0---0---0---|0---0---x---0---|----0---0-0-0---|
|----------------|----------------|----------------|----------------|
|----------------|----------------|----------------|----------------|




|3---3---x---3---|--------3---3-3-|3---3---x---3---|------------x-3-|
|2/3-3---x---2---|--------2---2-2-|1---1---x---0---|------------x-3-|
|0---0---x---3---|----3---3---3-3-|2---2---x---0---|------------x-0-|
|0---0---x---0---|----0---0---0---|0---0---x---0---|------------x-0-|
|----------------|----------------|----------------|------------x-2-|
|----------------|----------------|----------------|------------x-3-|




VERSE 2:

|3---3---x---x-0-|0---0---x-x-x-1-|1---1---x-x-x-0-|0---0---x-x-x-3-|
|3---3---x---x-3-|3---3---x-x-x-1-|1---1---x-x-x-1-|1---1---x-x-x-3-|
|0---0---x---x-2-|2---2---x-x-x-2-|2---2---x-x-x-0-|0---0---x-x-x-3-|
|0---0---x---x-0-|0---0---x-x-x-3-|3---3---x-x-x-2-|2---2---x-x-x-5-|
|2---2---x---x-0-|0---0---x-x-x-3-|3---3---x-x-x-3-|3---3---x-x-x-6-|
|3---3---x---x-2-|2---2---x-x-x-1-|1---1---x-x-x-0-|0---0---x-x-x---|

       and i...                 so much...




|3---3---x-x-x-3-|3-3-x-3-x-1-1-1-|3---3---x-x-x-0-|0---0---x-x-x-1-|
|3---3---x-x-x-3-|3-3-x-3-x-1-1-1-|3---3---x-x-x-3-|3---3---x-x-x-1-|
|3---3---x-x-x-3-|3-3-x-3-x-2-2-2-|4---4---x-x-x-2-|2---2---x-x-x-2-|
|5---5---x-x-x-5-|5-5-x-5-x-3-3-3-|5---5---x-x-x-0-|0---0---x-x-x-3-|
|6---6---x-x-x-6-|6-6-x-6-x-3-3-3-|5---5---x-x-x-0-|0---0---x-x-x-3-|
|----------------|----------1-1-1-|3---3---x-x-x-2-|2---2---x-x-x-1-|

               so is it...




|1---1---x-x-x-0-|0---0---x-x-x-3-|3---3---x-x-x-3-|3-3-x-3-x-1-1-1-|
|1---1---x-x-x-1-|1---1---x-x-x-3-|3---3---x-x-x-3-|3-3-x-3-x-1-1-1-|
|2---2---x-x-x-0-|0---0---x-x-x-3-|3---3---x-x-x-3-|3-3-x-3-x-2-2-2-|
|3---3---x-x-x-2-|2---2---x-x-x-5-|5---5---x-x-x-5-|5-5-x-5-x-3-3-3-|
|3---3---x-x-x-3-|3---3---x-x-x-6-|6---6---x-x-x-6-|6-6-x-6-x-3-3-3-|
|1---1---x-x-x-0-|0---0---x-x-x---|----------------|----------1-1-1-|

 these are...                                     would you...




BRIDGE 1:

|0---0-0-0---0-0-|--0-0---0-0-0-0-|0---0-0-0---0-0-|0-0-0---0-0-0-0-|
|3---3-3-3---3-3-|--3-3---3-3-3-3-|3---3-3-3---3-3-|3-3-3---3-3-3-3-|
|2---2-2-0---0-0-|--0-0---0-0-0-0-|2---2-2-0---0-0-|0-0-0---0-0-0-0-|
|0---0-0-2---2-0-|--0-2---2-2-2-2-|0---0-0-2---2-0-|0-0-2---2-2-2-2-|
|0---0-0-3---3-2-|--2-3---3-3-3-3-|0---0-0-3---3-2-|2-2-3---3-3-3-3-|
|----------------|----------------|----------------|----------------|

                            and i...




|0---0-0-0---0-0-|0-0-0---0-0-0-0-|0---0-0-0---0-0-|0-0-0---0-0-0-0-|
|3---3-3-3---3-3-|3-3-3---3-3-3-3-|3---3-3-3---3-3-|3-3-3---3-3-3-3-|
|2---2-2-0---0-0-|0-0-0---0-0-0-0-|2---2-2-0---0-0-|0-0-0-0-0-0-0-0-|
|0---0-0-2---2-0-|0-0-2---2-2-2-2-|0---0-0-2---2-0-|0-0-2-2-2-2-2-2-|
|0---0-0-3---3-2-|2-2-3---3-3-3-3-|0---0-0-3---3-2-|2-2-3-3-3-3-3-3-|
|----------------|----------------|----------------|----------------|

                            and she...




CHORUS 1:

|3---3---x---x-3-|3---3---x-x-x-1-|1---1---x-x-x-1-|1---1---x-x-x-3-|
|3---3---x---x-3-|3---3---x-x-x-1-|1---1---x-x-x-1-|1---1---x-x-x-3-|
|3---3---x---x-3-|3---3---x-x-x-2-|2---2---x-x-x-2-|2---2---x-x-x-3-|
|5---5---x---x-5-|5---5---x-x-x-3-|3---3---x-x-x-3-|3---3---x-x-x-5-|
|6---6---x---x-6-|6---6---x-x-x-3-|3---3---x-x-x-3-|3---3---x-x-x-6-|
|----------------|--------------1-|1---1---x-x-x-1-|1---1---x-x-x---|

                  where you...




|3---3---x-x-x-3-|3---3---x-x-x-1-|1---1---x-x-x-1-|1-1-x-1-x-1-1-1-|
|3---3---x-x-x-3-|3---3---x-x-x-1-|1---1---x-x-x-1-|1-1-x-1-x-1-1-1-|
|3---3---x-x-x-3-|3---3---x-x-x-2-|2---2---x-x-x-2-|2-2-x-2-x-2-2-2-|
|5---5---x-x-x-5-|5---5---x-x-x-3-|3---3---x-x-x-3-|3-3-x-3-x-3-3-3-|
|6---6---x-x-x-6-|6---6---x-x-x-3-|3---3---x-x-x-3-|3-3-x-3-x-3-3-3-|
|----------------|--------------1-|1---1---x-x-x-1-|1-1-x-1-x-1-1-1-|

                  where you...




|3---3---x-x-x-3-|3---3---x-x-x-1-|1---1---x-x-x-1-|1-----1---1-1-1-|
|3---3---x-x-x-3-|3---3---x-x-x-1-|1---1---x-x-x-1-|1-----1---1-1-1-|
|3---3---x-x-x-3-|3---3---x-x-x-2-|2---2---x-x-x-2-|2-----2---2-2-2-|
|5---5---x-x-x-5-|5---5---x-x-x-3-|3---3---x-x-x-3-|3-3-3-3-3-3-3-3-|
|6---6---x-x-x-6-|6---6---x-x-x-3-|3---3---x-x-x-3-|3-3-3-3-3-3-3-3-|
|----------------|--------------1-|1---1---x-x-x-1-|1-1-1-1-1-1-1-1-|

           and i...




|3---3---x-x-x-3-|3---3---x-x-x-1-|1-------1-----1-|--1-1-1-1-1-1-1-|
|3---3---x-x-x-3-|3---3---x-x-x-1-|1-------1-----1-|--1-1-1-1-1-1-1-|
|3---3---x-x-x-3-|3---3---x-x-x-2-|2-------2-----2-|--2-2-2-2-2-2-2-|
|5---5---x-x-x-5-|5---5---x-x-x-3-|3---3-3-3-3-3-3-|3-3-3-3-3-3-3-3-|
|6---6---x-x-x-6-|6---6---x-x-x-3-|3---3-3-3-3-3-3-|3-3-3-3-3-3-3-3-|
|----------------|--------------1-|1---1-1-1-1-1-1-|1-1-1-1-1-1-1-1-|

                  will she...




CHORUS 2:

|----------------|----------------|----------------|----------------|
|----------------|----------------|----------------|----------------|
|----------------|----------------|--------------7/|8-8-8-8-7-7-7-7-|
|5-5-----5-x-x-5-|3-3-3-x-x-3---3-|2-2-2-2-2---x-7/|8-8-8-8-7-7-7-7-|
|5-5-----5-x-x-5-|3-3-3-x-x-3---3-|3-3-3-3-3---x-5/|6-6-6-6-5-5-5-5-|
|3-3-3-3-3-x-x-3-|1-1-1-x-x-1---1-|0-0-0-0-0---x---|----------------|

     when   the...                     got time...




|----------------|----------------|----------------|----------------|
|----------------|----------------|----------------|----------------|
|----------------|----------------|--------------7/|8-8-8-8-7-7-7-7-|
|5-5-5-5-5-x-x-5-|3-3-3-x-x-3---3-|2-2-2-2-2---2-7/|8-8-8-8-7-7-7-7-|
|5-5-5-5-5-x-x-5-|3-3-3-x-x-3---3-|3-3-3-3-3---3-5/|6-6-6-6-5-5-5-5-|
|3-3-3-3-3-x-x-3-|1-1-1-x-x-1---1-|0-0-0-0-0---0---|----------------|

                      to find...




|----------------|----------------|----------------|----------------|
|----------------|----------------|----------------|----------------|
|----------------|----------------|--------------7/|8-8-8-8-7-7-7-7-|
|5-5-5-5-5-x-x-5-|3-3-3-x-x-3---3-|2-2-2-2-2---2-7/|8-8-8-8-7-7-7-7-|
|5-5-5-5-5-x-x-5-|3-3-3-x-x-3---3-|3-3-3-3-3---3-5/|6-6-6-6-5-5-5-5-|
|3-3-3-3-3-x-x-3-|1-1-1-x-x-1---1-|0-0-0-0-0---0---|----------------|

     when   the...                     got time...




|----------------|----------------|----------------|----------------|
|----------------|----------------|----------------|----------------|
|----------------|----------------|--------------7-|7/8-----7-------|
|5-5-5-5-5---x-5-|3-3-3-x-x-3---3-|2-2-2-2-2---x-7-|7/8-----7-------|
|5-5-5-5-5---x-5-|3-3-3-x-x-3---3-|3-3-3-3-3---x-5-|5/6-----5-------|
|3-3-3-3-3---x-3-|1-1-1-x-x-1---1-|0-0-0-0-0---x---|----------------|

                      to find...




OUTRO:

|3---3---x---3---|--------3---3-3-|3---3---x---3---|--------3-3-3---|
|3---3---x---2---|--------2---2-2-|1---1---x---0---|--------0-1-2---|
|0---0---x---3---|----3---3---3-3-|2---2---x---0---|----0---0-0-0---|
|0---0---x---0---|----0---0---0---|0---0---x---0---|----0---0-0-0---|
|----------------|----------------|----------------|----------------|
|----------------|----------------|----------------|----------------|




|3---3---x---3---|--------3---3-3-|3---3---x---3---|--------3-3-3---|
|2/3-3---x---2---|--------2---2-2-|1---1---x---0---|--------0-1-2---|
|0---0---x---3---|----3---3---3-3-|2---2---x---0---|----0---0-0-0---|
|0---0---x---0---|----0---0---0---|0---0---x---0---|----0---0-0-0---|
|----------------|----------------|----------------|----------------|
|----------------|----------------|----------------|----------------|




|3---3---x---3---|--------3---3-3-|3---3---x---3---|----3---3-3-3---|
|2/3-3---x---2---|--------2---2-2-|1---1---x---0---|----0---0-1-2---|
|0---0---x---3---|----3---3---3-3-|2---2---x---0---|----0---0-0-0---|
|0---0---x---0---|----0---0---0---|0---0---x---0---|----0---0-0-0---|
|----------------|----------------|----------------|----------------|
|----------------|----------------|----------------|----------------|




|3---3---x---3---|--------3---3-3-|3---3---x------3|----------------|
|2/3-3---x---2---|--------2---2-2-|1---1---x-----0-|----------------|
|0---0---x---3---|----3---3---3-3-|2---2---x----0--|----------------|
|0---0---x---0---|----0---0---0---|0---0---x---0---|----------------|
|----------------|----------------|----------------|----------------|
|----------------|----------------|----------------|----------------|
Tap to rate this tab
# A B C D E F G H I J K L M N O P Q R S T U V W X Y Z