Stone Temple Pilots - Where The River Goes tab

-----------------------------------------------------------------------------
			   WHERE THE RIVER GOES - Stone Temple Pilots
-----------------------------------------------------------------------------

Song: Where the River Goes
Artist: Stone Temple Pilots
Album: Core
Tabbed by: rd93
Tuning: Standard (EADGBe)

This has bits and pieces from the other tabs with some corrections. Credit for most of 
the solos goes to jjhand.

I'm not going to put all the parts in order because that would make a ridiculously large 
tab. Just repeat parts when necessary.

Intro Solo:

e|-------------------------------------------------------------------------|
B|-15b17~----------15b17r15-12----------------------------x-xx-14-12----12-|
G|-----------------------------14b16r15b16~---------------x-xx-14-12----12-|
D|-------------------------------------------------------------------14----|
A|-------------------------------------------------------------------------|
E|-------------------------------------------------------------------------|

e|-------------------------------------------------------------------------|
B|-12~--------------------------------------15b17r15b17~-------------------|
G|-12~------------------------12-14-12-(12)--------------------------------|
D|------------------------/14----------------------------------------------|
A|-------------------------------------------------------------------------|
E|-------------------------------------------------------------------------|

These are the two chords that separate different sections of the song:

e|---|---|
B|---|---|
G|---|---|
D|-7-|-8-|
A|-7-|-7-|
E|-5-|-6-|

Insert where necessary.

Intro/Verse/Main Riff:

e|--------------------------------------------------------|
B|---------8~------------8~------------8~-----------------|
G|---------7~------------7~------------7~-----------------|
D|---------6~------------6~------------6~-----------------|
A|---------7~------------7~------------7~-------------4~--|
E|-3b--0---------3b--0---------3b--0---------3~-5~-3~-----|

Chorus 1:

This chord (xx0430) is played with an upstroke. (It's hard to tell if that chord is even right...)

e|-------------------------0~-----------------------------------0~---|
B|-------------------------3~-------------------------------3~--3~---|
G|-------------------------4~-------------------------------4~-------|
D|-5/7-7-7-7-5~--5-5/7-7---0~---x-x-5/7-7-7-7-5~--5-7/5-5---0~-------| x2
A|-5/7-7-7-7-5~--5-5/7-7--------x-x-5/7-7-7-7-5~--5-7/5-5------------|
E|-3/5-5-5-5-3~--3-3/5-5--------x-x-3/5-5-5-5-3~--3-5/3-3------------|
       .   .                           .   .

Chorus 2:

e|------------------------------------------------------------------|
B|--5/7-x-x-5/7-x-x-5/7-x-7---------5/7-x-x-5/7-x-x-5/7-x-8-x-5~----|
G|--5/7-x-x-5/7-x-x-5/7-x-7---------5/7-x-x-5/7-x-x-5/7-x-7-x-5~----|
D|--5/7-7-7-5/7-7-7-5/7-7-7-7-6-5-5-5/7-7-7-5/7-7-7-5/7-7-7-7-5~----| x2
A|------------------------------------------------------------------|
E|------------------------------------------------------------------|
        . .     . .     .   . . . .     . .     . .     .   .

Bridge (part 1):

This is actually three guitars at once: a distorted one playing the slides on the A 
string, one with some sort of effect picking the other notes and a clean one doing fills. 
I'm not going to tab that last one; this will be the first two combined. Let all notes ring.

e|-------------------------------------------------------------------------|
B|-----------------------------3---------------------------------3---------|
G|------------9------------5-----5--------------9------------5-----5-------|
D|--------9-----9--------5---5--------------9-----9--------5---5-----------|
A|-3/7~-7---7-------7\3~-------------3/7~-7---7-------7/3~-------2/3\2/3~--|
E|-------------------------------------------------------------------------|
-
e|-------------------------------------------------------------------------|
B|-----------------------------3---------------------------------3---------|
G|------------9------------5-----5--------------9------------5-----5-------|
D|--------9-----9--------5---5--------------9-----9--------5---5-----------|
A|-3/7~-7---7----/10~\3~-------------3/7~-7---7-------7/3~-----------------|
E|-------------------------------------------------------------------------|

Bridge (part 2):

e|-(5)---------------3~-----3~---------(5)--------------------(0)----------|
B|-(5)---------------3~-------3~-------(5)---------------------x-----------|
G|--6~---------------5~-----------5~----6~---------------(9)---9~----------|
D|--7~---------------5~--5~---------5~--7~----------------8~---8~----------|
A|--7~---------------3~-----------------7~----------------7~---7~----------|
E|--5~---------------3~-----------------5~----------------6~---------------|

Solo:

e|------------------------------------------------------------17-16b17r16--|
B|------------------------------12b13-----------------15~-17~--------------|
G|-12b13-----------14b16------------------------/16b~----------------------|
D|------14-14~----------14-14~-------14-14~--------------------------------|
A|-------------------------------------------------------------------------|
E|-------------------------------------------------------------------------|

e|-14----------------------------------------------------------------------|
B|----17~-----15b~-15b----b16b17~--------------12--------------------------|
G|-------------------16p14--------16r14~p12--------------------------------|
D|------------------------------------------14----14~----12p14b16~----b16--|
A|-------------------------------------------------------------------------|
E|-------------------------------------------------------------------------|

e|-------------------------------------------------------------------------|
B|--------------------------------------------------------------------9-12-|
G|----------------------------------------------------------------7/9------|
D|-b16-b16r14b16~----------5-5---------------------------------------------|
A|----------------------/7-----7br~--------2-0------------/7~-10~----------|
E|---------------------------------------------3b4r3~----------------------|

e|-12----10-9--------------------------------------------------------------|
B|----12------8~-----------15------17------17----19b21r19~----17-19b21~----|
G|-------------------/16~-----16~-----18~-----18---------------------------|
D|-------------------------------------------------------------------------|
A|-------------------------------------------------------------------------|
E|-------------------------------------------------------------------------|

e|--------17b18b~-17b19~-r17b19r17b19r17b19r17b19~~------------------------|
B|-19b21~------------------------------------------------------------------|
G|-------------------------------------------------------------------------|
D|-------------------------------------------------------------------------|
A|-------------------------------------------------------------------------|
E|-------------------------------------------------------------------------|

Outro Solo:

This guitar sounds like it could be played down a whole octave, shifted up with an 
octave pedal. If you want to transpose everything down an octave and use that, it will 
probably sound more like the recording, but this is the way it should sound:

e|--------------------------------------------------------------14-15-17~~-|
B|-12~-h13p12p10~-12~--10--------------------------------------------------|
G|------------------------12-11h12p11--------11/12~-/14-14~----------------|
D|------------------------------------13-12~-------------------------------|
A|-------------------------------------------------------------------------|
E|-------------------------------------------------------------------------|

e|-18~--17-----------------------------------------------------------------|
B|---------19-18~~---17----------------------------------------------------|
G|----------------------18b19~--b19~-b19~-b19~-b19~--b19~--19r-19r---------|
D|-------------------------------------------------------------------------|
A|-------------------------------------------------------------------------|
E|-------------------------------------------------------------------------|

e|-----------------------------------------------/12-13-14-14~---14-15-17~-|
B|-12~-h13p12p10~-12~--10--------------------------------------------------|
G|------------------------12-11h12p11-12-11-12-11--------------------------|
D|-------------------------------------------------------------------------|
A|-------------------------------------------------------------------------|
E|-------------------------------------------------------------------------|

e|-15-17-18~-18~-17h18p17-15~--17-14~--15-14------------------13-----------|
B|-------------------------------------------15~----17-14~-------15~----17-|
G|-------------------------------------------------------------------------|
D|-------------------------------------------------------------------------|
A|-------------------------------------------------------------------------|
E|-------------------------------------------------------------------------|

e|-------------------------------------------------------------------------|
B|-14~-(14)brbrbrbr--------------------------------------------------------|
G|------------------14h15p14h15p14------------------14h15p14h15p14---------|
D|----------------------------------14h15p14h15p14------------------14h15p-|
A|-------------------------------------------------------------------------|
E|-------------------------------------------------------------------------|

e|-----------------------17~--18~--15-14-----------------------------------|
B|-----------------14-15-----------------15p14h15p14-----------------------|
G|-----------14-15---------------------------------------------------------|
D|-14h15p14------------------------------------------14-12-11--------------|
A|------------------------------------------------------------13-12~---12--|
E|-------------------------------------------------------------------------|

e|-------------------------------------------------------------------------|
B|-------------------------------------------------------------------------|
G|-------------12-14p12h14p12-12------------------14~--12------------------|
D|----11-14-15-------------------15-14~--15-14-15---------15p14h15-14-15-14|
A|-13----------------------------------------------------------------------|
E|-------------------------------------------------------------------------|

e|-------------------------------------------------------------------------|
B|-------------------------------------------------------------------------|
G|----15~--14-12----12h14p12h14/15~-h17p15h17p15h17p15-14-14~---/17~--15-14|
D|-15------------15--------------------------------------------------------|
A|-------------------------------------------------------------------------|
E|-------------------------------------------------------------------------|

e|-----------------------------------------18~---17~-----------------------|
B|---15~-------------------17~-----18~--15-------------18b20~~~~~~~~~~~~~~-|
G|--------15h17p15h17p15~--------------------------------------------------|
D|-------------------------------------------------------------------------|
A|-------------------------------------------------------------------------|
E|-------------------------------------------------------------------------|
Tap to rate this tab
 
# A B C D E F G H I J K L M N O P Q R S T U V W X Y Z