Song name
# A B C D E F G H I J K L M N O P Q R S T U V W X Y Z

Stone Temple Pilots - Hollywood Bitch tab

Hey guys,I've seen the tabs for this song on the website, and most of them are wrong, 
IMO, so here's my version. Hope it helps!

Tabbed by: Andrew Hanc (16 yrs. old)

Song- Hollywood Bitch
Artist: Stone Temple Pilots
Album: Shagri-La Dee Da






|----------------------------|
|----------------------------|
|----------------------------|
|--------5-------5-----------|
|----------------------------|
|--5-6-7---5-6-7---3-5-5-3-0-|  Play this part 4 times for the intro


|--------------------------|
|--------------------------|
|--------------------------|
|--------------------------|
|--7-6-5-5-6-7-6-5-5-5-5-5-|
|--5-4-3-3-4-5-4-3-3-0-3-0-|   Play this part 8 times for the verse


|--------------------------------------|
|--8p5---8p5---------------------------|
|--------------------------------------|
|--------------------------------------|
|--------------------------------------|
|------------ Play this after the|-5---| chord at the end of the section above
                                 |-0-|



|------------------------------|
|--------7-7-9--9--------------|
|--------7-7-9--9--11-11-11-11-|
|--9-9-9-7-7-9--9--12-12-12-12-|
|--9-9-9-----11-11-10-10-10-10-|
|--7-7-7-----------------------|    Play this four times as the prechorus


|---
|---
|---
|--4
|--4
|--2  jam on this for two measures after the fourth prechorus repeat (4/4)


|------|
|------|
|--4\-1
|--4\-2
|--2\-2
|------     Play this part 10 times for the chorus


|----------------------------|
|----------------------------|
|----------------------------|
|--------5-------5-----------|
|----------------------------|
|--5-6-7---5-6-7---3-5-5-3-0-|   Play this part twice right after the chorus


|--------------------------|
|--------------------------|
|--------------------------|
|--------------------------|
|--7-6-5-5-6-7-6-5-5-5-5-5-|
|--5-4-3-3-4-5-4-3-3-0-3-0-|   Play this part four times for second verse.


|--------------------------------------|
|--8p5---8p5---------------------------|
|--------------------------------------|
|--------------------------------------|
|--------------------------------------|
|------------ Play this after the|-5---| chord at the end of the section above
                                 |-0---|


|------------------------------|
|--------7-7-9--9--------------|
|--------7-7-9--9--11-11-11-11-|
|--9-9-9-7-7-9--9--12-12-12-12-|
|--9-9-9-----11-11-10-10-10-10-|
|--7-7-7-----------------------| Play this four times for the second prechorus


|---|
|---|
|---|
|--4|
|--4|
|--2|  jam on this for two measures after the fourth prechorus repeat (4/4)


|------|
|------|
|--4\-1|
|--4\-2|
|--2\-2|
|------|  Play this for the second chorus and the repeat (total of 15 times)


End.
Tap to rate this tab
 
# A B C D E F G H I J K L M N O P Q R S T U V W X Y Z