Guitaretab - guitar tabs
Song name
# A B C D E F G H I J K L M N O P Q R S T U V W X Y Z

Stone Temple Pilots - Bi-polar Bear tab

'Bi-Polar Bear' by Stone Temple Pilots
from the album 'Shangri La De Da'

Tuning (Electrics, Acoustic 1): DADGBE,  Acoustic 2 & 3 Tuning: DADGBD

Intro/Verse Riff - Guitar 1:
E|-----------------|-------------------|---------------------|---------------------|
B|-------0---0--0--|--0---0-0-0-0-0----|---------------------|---------------------|
G|-------0---0--0--|--0---0-0-0-0-0----|--3-3-3--------------|--6---6--6--x--6-----|
D|-------4h5-5--4--|--4---4-5-4-5-4-x--|--3-3-3-3---3--3-3---|---------------------|
A|-------5---5--5--|--5---5-5-5-5-5-x--|--0-1-0-3---3--3-3-x-|--4---4--4--x--4-----|
D|---5-5-5---5--5--|--5---5-5-5-5-5-x--|--------3---2--3-2-x-|-(0)-(0)(0)---(0)----|

Verse plays Riff 2x with Guitar 2 (w/ tremelo) coming in on bar 4

D|----|----|----|--10---|--9---9-9-9-9--|--9-----9-9-9--|--8---------|--12------|
B|----|----|----|--10---|--8---8-8-8-8--|--8-----8-8-8--|------------|--10------|
G|----|----|----|--7----|--7---7-7-7-7--|--7-----7-7-7--|--6---------|--11------|
D|----|----|----|--0----|---------------|---------------|--8---------|----------|
A|----|----|----|-------|---------------|---------------|------------|----------|
D|----|----|----|-------|---------------|---------------|------------|----------|

On last bar Guitar 1 plays Prechorus:
E|--------------------------|------------------------------------|
B|--------------------------|------------------------------------|
G|--7---7---7-7/9---9-9/11--|--11-11/13---13-13---13---13-13-----|
D|--------------------------|------------------------------------|
A|--5---5---5-5/7---7-7/9---|--9---9/11---11-11---11---11-11-----|
D|--0---0---0-0-----0-0-----|--0---0------0--0----0----0--0------|


Chorus (w/ distortion, let notes ring)
E|--------------------------|------------------------|------------|-------------|
B|--------------------------|------------------------|---7---5----|---7---5----o|
G|--9---9/11--11\5--5-5--5--|9---9/11--11\5--5-5--5--|-----5---5--|-----5---5---|
D|--0---0-----0--0--0-0--0--|0---0-----0--0--0-0--0--|-0----------|-0-----------|
A|--7---7/9---9-\3--3-3--3--|7---7/9---9-\3--3-3--3--|------------|------------o|
D|--------------------------|------------------------|------------|-------------|

3rd and 4th bars, Guitar 2 plays (w/ distortion)
E|----------------------------|
B|----------------------------|
G|----------------------------|
D|--0----4b5--0-0--10b11-0-0--|
A|--0----4b5--0-0--10b11-0-0--|
D|--0----4b5--0-0--10b11-0-0--|

End of Chorus- 
Guitar 1                        Guitar 2
E|-----------------|		E|-------------------|
B|--5---5--5-5--5--|		B|-------------------|
G|--5---5--5-5--5--|		G|-------------------|
D|--0---0--0-0--0--|		D|-------------------|
A|-----------------|		A|----------0-5-3~---|
D|-----------------|		D|--0--4--5----------|

Verse 2 and Chorus 2 are similar
[ Tab from: http://www.guitaretab.com/s/stone-temple-pilots/30570.html ]
Guitar 2 Solo (Guitar 1 plays Verse)
w/ wah filter
E|-----------------------|--------------------|-------------------------|
B|--10b12~--10-8-7-8b10--|--------------------|-------------------------|
G|-----------------------|--7-9-9b11-9---7-9--|--9b10r9-7-9-5--7-5------|
D|-----------------------|--------------------|--------------------7----|
A|-----------------------|--------------------|-------------------------|
D|-----------------------|--------------------|-------------------------|

E|---------------------------|-------------------------------------|
B|---------------------------|----------10~----10---10--10/12\10---|
G|---------------------------|-------7-------7----7------7/-9\7----|
D|------------4-5-7-4-5-7/9--|-5-7-9-------------------------------|
A|--7/9~--5-7----------------|-------------------------------------|
D|---------------------------|-------------------------------------|

E|----------------------|---------------------|--------------------------|
B|---------------15-17--|--17b18r17-15-17--13-|-15-13----13b15~---15-13--|
G|-----------/14--------|---------------------|-------14-----------------|
D|--7-5-4~--------------|---------------------|--------------------------|
A|----------------------|---------------------|--------------------------|
D|----------------------|---------------------|--------------------------|

E|--------------------------|--------------------------------------10-13b15r13-10--------|
B|--------------------------|-10b13r10---10b13r10-10b13r10---10-13----------------13b15--|
G|--14-13---14-12-10-12-----|------------------------------------------------------------|
D|-------15-------------12--|------------------------------------------------------------|
A|--------------------------|------------------------------------------------------------|
D|--------------------------|------------------------------------------------------------|

Play Chorus for 3rd time

Ending: Guitar 3 (Acoustic)     
D|--0-----0-----0---|--------|		
B|----2-----2-----2-|-------o|		
G|------2-----2-----|-0------|	repeats several times	
D|------------------|--------|		
A|------------------|-------o|		
D|------------------|--------|		

Guitar 2 - repeated strum rhythm
D|--0---0-0--0-0--0----|--0---0--0--0-0-0--|
B|--3---3-3--3-3--3----|--3---3--3--3-3-3--|		
G|--2---2-2--2-2--2----|--2---2--2--2-2-2--|		
D|--0---0-0--0-0--0----|--0---0--0--0-0-0--|		
A|--0---0-0--0-0--0----|--0---0--0--0-0-0--|		
D|---------------------|-------------------|	

Guitar 1,  w/ slide (slight ad lib each repeat)
E|----------------------|---------------------------|--------------------|------------|
B|----------------------|---------------------------|--------------------|-----------o|
G|--14\11---------------|---------------------------|--------------------|------------|repeat
D|----------14/16\14----|--(14)--12/14-12-----------|--12----12-14-14/16-|(16)\14-----|
A|----------------------|-----------------14-14\12--|-----12-------------|-----------o|
D|----------------------|---------------------------|--------------------|------------|

Related for Bi-polar Bear tab
×
Bi-polar Bear