Song name
# A B C D E F G H I J K L M N O P Q R S T U V W X Y Z

Stone Temple Pilots - Sex Type Thing tab

This is just the bridge of the song "I believe its the bridge" because every
tab was fairly accurate until it got to this part. Listen to the song to get
the rhythm down because I had a little trouble tabbing how long you stayed
on each chord.

E-|-------------------------------------------------------------------------|
B-|-------------------------------------------------------------------------|
G-|-9-9-9-11-11-11-13-13-13-13-13-13-13-13-13-13-13-------------------------|
D-|-0-0-0-0--0--0--0--0--0--0--0--0--0--0--0--0--0--------------------------|
A-|-7-7-7-9--9--9--11-11-11-11-11-11-11-11-11-11-11-------------------------|
E-|-------------------------------------------------------------------------|

Here I come, I come, I come, I come.

E-|-------------------------------------------------------------------------|
B-|-11-11-11-11-11-11-11-11-11-11-11-11-------------------------------------|
G-|-13-13-13-13-13-13-13-13-13-13-13-13-------------------------------------|
D-|-12-12-12-12-12-12-12-12-12-12-12-12-------------------------------------|
A-|-13-13-13-13-13-13-13-13-13-13-13-13-------------------------------------|
E-|-------------------------------------------------------------------------|
Tap to rate this tab
# A B C D E F G H I J K L M N O P Q R S T U V W X Y Z