Song name
# A B C D E F G H I J K L M N O P Q R S T U V W X Y Z

Stone Temple Pilots - Plush Acoustic tab

-------------------------------------------------------------------------------
                             PLUSH - Stone Temple Pilots
-------------------------------------------------------------------------------
Tabbed by: BitterSpock
E-mail: bitterspock@comcast.net

Tuning: STD (Capo at 2nd fret)

This tab is actually transposed so that you can play it in standard tuning,
but sounds like the acoustic version tuned 1/2 step down. I found it to be a
pain to retune the guitar, so I worked out this transcription. Interestingly
enough, you can move the capo back up to the 3rd fret to get the same tuning
as the studio album (not down 1/2 step). I took some liberties with some of
chords which I think sounded pretty good considering I can't get at all of
low notes due to the capo. Tab is relative to the capo. Listen to the song
to get the strumming/muting down. Enjoy!

Intro/Outro:
e|--0--0-----0-----0----------0--0-----0--0--0-------------------------------|
B|--5--5-----5-----5----------5--5-----0--0--0-------------------------------|
G|--4--4-----3-----3----------2--2-----1--1--1--2--3-------------------------|
D|--6--6-----5--5--5----------4--4-----2--2----------------------------------|
A|----------------------------0--0-----2--2----------------------------------|
E|-------------------------------------0--0----------------------------------|

e|--0--0-----0-----0----------0--0-----0-------------------------------------|
B|--5--5-----5-----5----------5--5-----0-------------------------------------|
G|--4--4-----3-----3----------2--2-----1-------------------------------------|
D|--6--6-----5--5--5----------4--4-----2-------------------------------------|
A|----------------------------0--0-----2-------------------------------------|
E|-------------------------------------0-------------------------------------|

And I feel, times a ....
e|--0--0--x----------x----2--2--x----0--0--x---------------------------------|
B|--0--0--x----------x----3--3--x----2--2--x---------------------------------|
G|--1--1--x----------x----2--2--x----2--2--x---------------------------------|
D|--2--2--x----1--1--x----0--0--x----2--2--x---------------------------------|
A|--2--2--x----2--2--x----------x----0--0--x---------------------------------|
E|--0--0--x----2--2--x----------x----------x---------------------------------|

e|--0--0--x----0--0--x----2--------------------------------------------------|
B|--0--0--x----0--0--x----3--------------------------------------------------|
G|--0--0--x----0--0--x----2--------------------------------------------------|
D|--2--2--x----2--2--x----0--------------------------------------------------|
A|--3--3--x----3--3--x-------------------------------------------------------|
E|--0--0--x----0--0--x-------------------------------------------------------|

And I feel it .....
e|---------------------------------------------------------------------------|
B|---------------------------------------------------------------------------|
G|--4--4--4--4---4--4---4--4----------4--------------------------------------|
D|--4--4--4--4---4--4---4--4-------4-----4-----------------------------------|
A|--2--2--2--0---0--x---x--0----0--------------------------------------------|
E|------------------4---4----------------------------------------------------|

Where are you going .....
e|--0--0--x----0--0--x----2--2--x----2--2--x----------------------------------|
B|--0--0--x----0--0--x----3--3--x----3--3--x----------------------------------|
G|--0--0--x----0--0--x----2--2--x----2--2--x----------------------------------|
D|--2--2--x----2--2--x----0--0--x----0--0--x----------------------------------|
A|--3--3--x----3--3--x----------x----------x----------------------------------|
E|--0--0--x----0--0--x----------x----------x----------------------------------|

When the dogs do find her.....
e|--0--0--0--0----------------------------------------------------------------|
B|--0--0--0--0----------------3--3--3--3--------------------------------------|
G|--0--0--0--0----------------2--2--2--2---5--5--5--4--4--4-------------------|
D|--2--2--2--2---1--1--1--1---0--0--0--0---5--5--5--4--4--4-------------------|
A|--3--3--3--3---2--2--2--2---x--x--x--x---3--3--3--2--2--2-------------------|
E|--0--0--0--0---2--2--2--2---2--2--2--2--------------------------------------|



************************************

| /   slide up
| \   slide down
| h   hammer-on
| p   pull-off
| ~   vibrato
| +   harmonic
| x   Mute note
| b   Bend
| pb  Pre-bend
| br  Bend release
| pbr Pre-bend release
| brb Bend release bend

************************************
Tap to rate this tab
 
# A B C D E F G H I J K L M N O P Q R S T U V W X Y Z