Song name
# A B C D E F G H I J K L M N O P Q R S T U V W X Y Z

Stone Temple Pilots - Coma tab

#----------------------------------PLEASE NOTE--------------------------------#
#This file is the author's own work and represents their interpretation of the#
#song. You may only use this file for private study, scholarship, or research.#
#-----------------------------------------------------------------------------#
#-- File created with Instab - http://www.pconline.com/~smcarey/instab.html --#
#-----------------------------------------------------------------------------#

Author/Artist: Stone Temple Pilots
Title: Coma
/ slide up
\ slide down
h hammer on
p pull off

D Tuning

------|-------------------------------|--|------------------------------------|
------|-------------------------------|--|------------------------------------|
------|-------------------------------|--|------------------------------------|
------|-------------------------------|--|------------------------------------|
------|-------------------------------|--|------------------------------------|
------|-17/21-21-21-21-20-19-19-18-17-|--|------------------------------------|
       Intro/Verse Riff

------|---------------------------|------------|---|--------------------------|
------|---------------------------|------------|---|--------------------------|
------|---------------------------|------------|---|--------------------------|
------|----------3----------------|------------|---|--------------------------|
------|-5--5-3-5---5-5--5-5-3-3-5-|------------|-0-|--------------------------|
------|-0--0-0-0---0-0--0-0-0-3-5-|------------|-0-|--------------------------|
       Verse/Prechorus              Intro Riff  Replace for Prechorus

-|---------|--|-------|---------|--|-------|---------|--|--------------------|
-|---------|--|-------|---------|--|-------|---------|--|--------------------|
-|---------|--|-------|---------|--|-------|---------|--|--------------------|
-|---------|3x|-------|---------|3x|-------|---------|3x|--------------------|
-|-8-8-8-8-|--|-6-5-6-|-8-8-8-8-|--|-6-5-6-|-7-7-7-7-|--|-5-3-5-0---0--5-3-5-|
-|-8-8-8-8-|--|-6-5-6-|-8-8-8-8-|--|-6-5-6-|-7-7-7-7-|--|-0-0-0-0---0--0-0-0-|
  Chorus                                                 "I n a co  ma"

-|---------|--|-------|---------|--|-------|---------|--|--------------------|
-|---------|--|-------|---------|--|-------|---------|--|--------------------|
-|---------|--|-------|---------|--|-------|---------|--|--------------------|
-|---------|3x|-------|---------|3x|-------|---------|3x|--------------------|
-|-8-8-8-8-|--|-6-5-6-|-8-8-8-8-|--|-6-5-6-|-7-7-7-7-|--|-5-3-5-0------------|
-|-8-8-8-8-|--|-6-5-6-|-8-8-8-8-|--|-6-5-6-|-7-7-7-7-|--|-0-0-0-0------------|
  Chorus End                                                     m

------|--------|-----------------|--|-------------------------------|---------|
------|--------|-----------------|--|-------------------------------|---------|
------|--------|-7---5---2----2--|--|-------------------------------|---------|
------|--------|-5---4---4----4--|--|-------------------------------|---------|
------|-0------|-5---3---0----0--|--|-0-0---0-0---0-0---0-0---0-0-0-|---------|
------|-0------|-----------------|--|-0-0---0-0---0-0---0-0---0-0-0-|---------|
      Interlude Chords                End
Tap to rate this tab
# A B C D E F G H I J K L M N O P Q R S T U V W X Y Z