Song name
# A B C D E F G H I J K L M N O P Q R S T U V W X Y Z

Stone Temple Pilots - Black Heart tab

#----------------------------------PLEASE NOTE--------------------------------#
#This file is the author's own work and represents their interpretation of the#
#song. You may only use this file for private study, scholarship, or research.#
#-----------------------------------------------------------------------------#
#-- File created with Instab - http://www.pconline.com/~smcarey/instab.html --#
#-----------------------------------------------------------------------------#

Author/Artist: Stone Temple Pilots
Title: Black Heart
b bend
r release bend
h hammer on
/ slide up
A Arpeggio
m mute

G1 Two Guitars Arr. for One (eb A D f# a d), Down ~ 10%
G2 Solo Guitar Tuning (eb A D G B E), Down ~ 10%



----|--------------------------------------------------------------|----------|
----|--------------------------------------------------------------|----------|
----|-8---8--8-8--6-7-8---8--8-8--6-7-8---8--8-8-------------------|----------|
----|-5-5-5--5-5--x-x-5-5-5--5-5--x-x-5-5-5--5-5-5-5---------------|----------|
----|-------------8-9-------------8-9------------5-7-8--7--5-3-----|----------|
----|--------------------------------------------x-x-----------7-4-|----------|
 G1 Verse  m               m               m




----|---------------------------------------------|---------------------------|
----|---------------------------------------------|---------------------------|
----|-8b--8--8--8b--8--6b-8--8b-------------------|---------------------------|
----|-5b--5--5--5b--5--x--5--5b-5-5---------------|---------------------------|
----|------------------8b-------5-7-8--7--5-3-----|---------------------------|
----|---------------------------x-x-----------7-4-|---------------------------|
  Verse End




-|---------------------------------------------------------------------------|
-|---------------------------------------------------------------------------|
-|-------------13-13--------------13--8---------------13-13---------------13-|
-|---------12-----12----------12------------------12-----12-----------12-----|
-|-8h10-10------------8h10-10-------------8h10-10-------------8h10-10--------|
-|------------------------------------7--------------------------------------|
  Bridge          A                                      A



-|----------------------------------------------------------------------------|
-|----------------------------------------------------------------------------|
-|----------------------------------------------------------------------------|
-|-5--5--5-5-5-5--5--5--5-5-5-5--3--3--3-3-3-3--3--3--3-3-3-3--5--5--5-5-5-5--|
-|-6--6--6-5-6-5--6--6--6-5-6-5--5--5--5-3-5-3--5--5--5-3-5-3--6--6--6-5-6-5--|
-|-x--x--x-x-x-x--x--x--x-x-x-x--x--x--x-x-x-x--x--x--x-x-x-x--x--x--x-x-x-x--|
   Chorus       m  m  m        m  m  m        m  m  m



-------------------------------------|----------------------------------------|
-------------------------------------|----------------------------------------|
---------------------------13--13----|----------------------------------------|
--5--5-5-5-5------------12-12--12----|----------------------------------------|
--6--6-5-6-5------10-10--------------|----------------------------------------|
--x--x-x-x-x---11--------------------|----------------------------------------|
               Let Ring    A   A




----|-------------------------------------------------------|-----------------|
----|-------------------------------------------------------|-----------------|
----|---------------------------------------------------13--|-----------------|
----|------------------------------------------------12-----|-----------------|
-10-|-10---------------------------------------10-10--------|-----------------|
----|---------------------------------------11--------------|-----------------|
      "Rescue me..."                        "mind........."




----|-------------------------------------------------------------------------|
----|-8--8--8---8-----------------5/8-8---------------------------------------|
----|-9b-9b-9b--9b--9-7---------7-----10---------------12-----10--------------|
----|-------------------10-9h10-------------------------------------14brbrp12-|
----|--------------------------------------10\-/----10-----10----10-----------|
----|--------------------------------------------11---------------------------|
  G2 SoloP  P   P                                P.M..

------------------------------------------------------------------------------|
------12-13p12-15-12-13p12-12-------------------------------------------------|
---12-------------------------12-14p12-12-----10h12-10----10------------------|
------------------------------------------15--12-------12----15----15----10---|
----------------------------------------------------------------17----17---14-|
------------------------------------------------------------------------------|
                                              P

----8/10--10-10-10-10-10-10----10-10--10-----|--------------------------------|
----------13-12-10-8--10-12\10-8--6/8-6/8----|--------------------------------|
---------------------------------------------|--------------------------------|
---------------------------------------------|--------------------------------|
---------------------------------------------|--------------------------------|
---------------------------------------------|--------------------------------|
          P  P  P  P  P  P     P  P   P




-|----------------------------------------------------------------------------|
-|----------------------------------------------------------------------------|
-|--------------13-13--------------13-8---------------13-13--------------11---|
-|---------12------12----------12-----------------12-----12--------------12---|
-|-8h10-10-------------8h10-10------------8h10-10------------12/14-12-10-8----|
-|------------------------------------7---------------------------------------|
  G1 Outro         A                                     A               A




------------|-----------------------------------------------------------------|
------------|-----------------------------------------------------------------|
-13---13----|-----------------------------------------------------------------|
-12---12----|-----------------------------------------------------------------|
-10---10----|-----------------------------------------------------------------|
------11----|-----------------------------------------------------------------|
 A    A
Tap to rate this tab
 
# A B C D E F G H I J K L M N O P Q R S T U V W X Y Z