Song name
# A B C D E F G H I J K L M N O P Q R S T U V W X Y Z

Stone Temple Pilots - Same On The Inside tab

STP - Same on the Inside
From the album 'High Rise'
Drop-D Tuning
Tabbed by jjhand

STP has several timing changes in the riffs of this song but it has a good beat
and interesting guitar and bass riffs throughout. Please rate or comment.


Intro/Main Riff - Repeated During Verse

   6/4 time                 4/4 time
e|------------------------|------------------|-------------------|
B|-10-9--8---7---7---5----|------------------|-------------------|
G|--9-9--9---7---7---7--7-|------------------|-------------------|
D|--0-0--0---0---0--------|-7-7-7-7-7-7----7-|----7-7-7-7-7-7----|
A|------------------------|-0-0-0-0-0-0----0-|----0-0-0-0-0-0----|
D|------------------------|------------------|-------------------|


Prechorus riff, pt 1:

played 4x
e|-----------------|---------------------|
B|-1-1-1-1---1---3-|-(3)---3-----3-3-----|
G|-2-2-2-2---2---2-|-(2)---2-----2-2-----|
D|-2-2-2-2---2---4-|-(4)---4-----4-4-----|
A|-3-3-3-3---3---5-|-(5)---5-----5-5-----|
D|-------------0---|-(0)---0-----0-0-----|

  pt 2:

   7/8 time              4/4 time
e|---------------------|--------------------|-----------------------|
B|---------------------|-12---12------12-12-|-10---10------10-10----|
G|---------------------|--9----9-------9--9-|--9----9-------9--9----|
D|---------------------|-10---10------10-10-|-10---10------10-10----|
A|----2--3--5--7--10-9-|--0----0-------0--0-|--0----0-------0--0--0-|
D|-0--0--0--0--0--0--0-|--------------------|-----------------------|


Chorus -

   play 2x
e|-5-----5-----5--5--5----|------------------------|
B|-5-----5-----5--5--5----|---7---7-------7--7-----|
G|-5-----5-----5--5--5----|---7---7-------7--7--0--|
D|-5-----5-----5--5--5--5-|---4---4-------4--4--0--|
A|-3-----3-----3--3--3--5-|---5---5-------5--5-----|
D|------------------------|------------------------|

e|-5-----5-----5--5-----3-|-------3-------3--3-----|-2------|
B|-5-----5-----5--5-----3-|-------3-------3--3-----|-3------|
G|-5-----5-----5--5-----0-|-------0-------0--0--0--|-2------|
D|-5-----5-----5--5--x--x-|-------x-------x--x--0--|-4------|
A|-3-----3-----3--3--x--2-|-------2-------2--2-----|-0------|
D|------------------------|------------------------|--------|




Play Main Riff Again 2x


Play Prechorus Again


Play Chorus again, but ending changes to:

play 2x
e|-5-----5-----5--5-----3-|-------3-------3--3-----|-2----2----2-2---|
B|-5-----5-----5--5-----3-|-------3-------3--3-----|-3----3----3-3---|
G|-5-----5-----5--5-----0-|-------0-------0--0--0--|-2----2----2-2---|
D|-5-----5-----5--5--x--x-|-------x-------x--x--0--|-4----4----4-4---|
A|-3-----3-----3--3--x--2-|-------2-------2--2-----|-0----0----0-0---|
D|------------------------|------------------------|-----------------|

e|-5-----5-----5--5-----3-|-------3-------3--3-----|
B|-5-----5-----5--5-----3-|-------3-------3--3-----|
G|-5-----5-----5--5-----0-|-------0-------0--0--0--|
D|-5-----5-----5--5--x--x-|-------x-------x--x--0--|
A|-3-----3-----3--3--x--2-|-------2-------2--2-----|
D|------------------------|------------------------|

e|-7-----7-----7--7--7--7--|-7--7--7--7--7--7--7--7-|
B|-7-----7-----7--7--7--7--|-7--7--7--7--7--7--7--7-|
G|-7-----7-----7--7--7--7--|-7--7--7--7--7--7--7--7-|
D|-7-----7-----7--7--7--7--|-7--7--7--7--7--7--7--7-|
A|-5-----5-----5--5--5--5--|-5--5--5--5--5--5--5--5-|
D|-------------------------|------------------------|


Play Prechorus Pt 2


Play Chorus with similar ending to the second time, repeated until end:

e|-5-----5-----5--5-----3-|-------3-------3--3-----|-2----2----2-2-2-|
B|-5-----5-----5--5-----3-|-------3-------3--3-----|-3----3----3-3-3-|
G|-5-----5-----5--5-----0-|-------0-------0--0--0--|-2----2----2-2-2-|
D|-5-----5-----5--5--x--x-|-------x-------x--x--0--|-4----4----4-4-4-|
A|-3-----3-----3--3--x--2-|-------2-------2--2-----|-0----0----0-0-0-|
D|------------------------|------------------------|-----------------|


Dean's Outro Solo
e|----------------------|------------------------12-14-15~|
B|-15b17-15-13-12-------|----------------12h13h15---------|
G|----------------14-12-|-14~-------12h14-----------------|
D|----------------------|---------------------------------|
A|----------------------|---------------------------------|
D|----------------------|---------------------------------|

e|-(15~)----15p14p12-15p14p12-15p14p12-|-14~--12----12~b14~-------|
B|-------------------------------------|---------15------------13-|
G|-------------------------------------|--------------------------|
D|-------------------------------------|--------------------------|
A|-------------------------------------|--------------------------|
D|-------------------------------------|--------------------------|

e|------------------------|-------------------------------------------|
B|-13b15___r13----13-12---|--------------13-15-13-----13--------------|
G|---------------------14-|-14---11-12-14--------14-12--12-14-12-11---|
D|------------------------|----------------------------------------12-|
A|------------------------|-------------------------------------------|
D|------------------------|-------------------------------------------|

e|------------------------15TP-|-15--12----------12-------|
B|-----------------------------|--------13----15----13----|
G|-12-11-----------------------|-----------14----------14-|
D|------12-10-12~--------------|--------------------------|
A|-----------------------------|--------------------------|
D|-----------------------------|--------------------------|

e|---------15-17br19-15-17b19-|-17~--|
B|-------15-------------------|------|
G|----/16---------------------|------|
D|----------------------------|------|
A|----------------------------|------|
D|----------------------------|------|

Hold final D chord at the ending



KEY
************************************

| /   slide up
| \   slide down
| h   hammer-on
| p   pull-off
| ~   vibrato
| +   harmonic
| x   Mute note
| b   Bend
| pb  Pre-bend
| r  Bend release
| pbr Pre-bend release
| brb Bend release bend

************************************
Tap to rate this tab
 
# A B C D E F G H I J K L M N O P Q R S T U V W X Y Z