Song name
# A B C D E F G H I J K L M N O P Q R S T U V W X Y Z

Stone Temple Pilots - Too Cool Queenie tab

Too Cool Queenie - From Album Shangri-La-Dee-Dah

Intro:
 The chords go : D-C-Bb-C-Bb-Bb-F

E|---5----3--1-1----3--1-1----------|     Play 2x
B|---7----5--3-3----5--3-3----------|
G|---7----5--3-3----5--3-3----------|
D|---7----5--3-3----5--3-3--8-8-8-3-|
A|-5-5--3-3--1-1--3-3--1-1--8-8-8-3-|
E|--------------------------6-6-6-1-|

I think the main riff goes basically like that.

Chorus:


[A] She would always crash the [G] party
It was no sur[F]prise
It was for [E] her [D]    [C]
Too Cool Queenie

Bridge:


[Bb] It's o[Ab]kay cause what [Db] goes around, [Ab] comes around
[Bb] It's all [Ab]right cause what [Db] goes around, [N.C.] comes around


Solo:


------------------------------------------------------------------------|
------------------------------------------------------------------------|
-12b14-12b14-10h12-12b14-10b12---12~~----12b14-10h12-12b14-10b12---12~--|
------------------------------------------------------------------------|
------------------------------------------------------------------------|
------------------------------------------------------------------------|


-------------------------------------------------------------------------------------------------|
-------------------------------------------------------------------------------------------------|
-------------------------------------------------------------------------------------------10h12-|
--10h12h10-------------------------------------------10h12h10-------10h12------------------------|
--------------------10h12h10----8~~-----10h12-----------------12---------------------------------|
-------------------------------------------------------------------------------------------------|

-----------------------------------------------------------------------------------------------|
--------------------------------------------------------13b15~~----13b15---17-17h18h17--15-17--|
---12b14---10h12-12b14b12p10-12p10-------------------------------------------------------------|
-----------------------------------------------------------------------------------------------|
-----------------------------------------------------------------------------------------------|

---------------------------------------|
---13b15b13---11---10~~------15b18~~---|
---------------------------------------|
---------------------------------------|
---------------------------------------|
---------------------------------------|

I apologize if there are any mistakes in the solo,
i didn't tab it!. That's pretty much all you need to know.
Hope this helps
--J
Tap to rate this tab
# A B C D E F G H I J K L M N O P Q R S T U V W X Y Z