Guitaretab - guitar tabs
Song name
# A B C D E F G H I J K L M N O P Q R S T U V W X Y Z

Stone Temple Pilots - Regeneration tab

Intro: (fades in)

e -------------|
b 8\6-8-10-8---|
d -------------|  (watch the timing, it's not 4/4)
g -------------|
a -------------|
E -------------|

Verses:

e 3-----3-3-----3-3-3-3-----3-3-3-|1-----1-1-----1-1-1-1-----------|
b 2-----0-2-----0-2-0-2-----0-2-0-|3-----3-3-----3-3-3-3-----------|
d 0-----0-0-----0-0-0-0-----0-0-0-|3-----3-3-----3-3-3-3-----------|
g 0-----0-0-----0-0-0-0-----0-0-0-|3-----3-3-----3-3-3-3---------0-|
a x-----x-x-----x-x-x-x-----x-x-x-|1-----0-1-----0-1-0-1---0-1-3---|
E 3-----3-3-----3-3-3-3-----3-3-3-|--------------------------------|

Chorus:

e ------------------------------------|----------------|
b ------------------------------------|----------------|
d ------------------------------------|----------------|
g 5-5-5-5/7-7-7-7/9-9-9-9/11-11-11-11-|11-12-11-----11-|
a x-x-x-x-x-x-x-x-x-x-x-x-x--x--x--x--|x--x--x------x--|
E 3-3-3-3/5-5-5-5/7-7-7-7/9--9--9--9--|9--10-9------9--|
[ Tab from: http://www.guitaretab.com/s/stone-temple-pilots/43978.html ]
e --------------------------------|----------------|
b --------------------------------|----------------|
d --------------------------------|----------------|
g 3-3-3-3/5-5-5-5/7-7-7-7/9-9-9-9-|11-12-11-----11-|
a x-x-x-x-x-x-x-x-x-x-x-x-x-x-x-x-|x--x--x------x--|
E 1-1-1-1/3-3-3-3/5-5-5-5/7-7-7-7-|9--10-9------9--|

e --------------------------------|
b --------------------------------|
d 6-6-6-6-----6-6-6-6-----6-6-----|
g 5-5-5-5-----5-5-5-5-----5-5-----| (twice)
a x-x-x-x-----x-x-x-x-----x-x-----|
E 3-3-3-3-----3-3-3-3-----3-3-----|

Bridge:
e --------------------------------|
b --------------------------------|
d 6-6-6-6-----6-6-6-6-----6-6-----|
g 5-5-5-5-----5-5-5-5-----5-5-----| pm - repeat from "To the fields..."
a x-x-x-x-----x-x-x-x-----x-x-----|      until solo
E 3-3-3-3-----3-3-3-3-----3-3-----|

Solo
|---------------------------------------------------------|
|------------9-9b\8-5-6-8--10-12--13-12-10--12--13-12-10--|
|--7-/8\7-5-----------------------------------------------| Back to verse
|---------------------------------------------------------|
|---------------------------------------------------------|
|---------------------------------------------------------|

The solo is my tab, I give complete credit to mjohnston10@hotmail.com for the rest, I 
wanted to keep the whole song together without separating the solo from the rest.
Related for Regeneration tab
Advertisement will be closed in 10 seconds