Song name
# A B C D E F G H I J K L M N O P Q R S T U V W X Y Z

Stone Temple Pilots - All In The Suit That You Wear tab

Help us improve GuitareTab! Take a short survey!
Stone Temple Pilots  All In The Suit That You Wear

The new song on Thank You, their greatest hits package.

Dropped-D tuning - DADGBe (low to high)


Intro (also Verse/Bridge Filler)
e|-----1---0---1----|
B|------------------|
G|---2--------------|
D|-0----------------|
A|------------------|
D|------------------|
   1 & 2 & 3 & 4 &   


Verse (Filler in after a few repetitions)
e|------------------|------------------|
B|------------------|------------------|
G|--------/7~-------|-7-------7-5/7)---|
D|--------/7~-------|-7-------7-5/7)---|
A|-0------/5~-------|-5-------5-4/5)---|
D|-0----------------|---0-0------------|
   1 & 2 & 3 & 4 &    1 & 2 & 3 & 4 &   


Verse Filler 2 
e|------------------|------------------| (Begins in Verse 2 and is
B|------------------|------------------|  replaced by Verse Filler
G|------------------|------------------|  about half way through)
D|----<5>-----<5>---|----<5>-----<5>---|
A|----<5>-----<5>---|----<5>-----<5>---|
D|------------------|------------------|
   1 & 2 & 3 & 4 &    1 & 2 & 3 & 4 &   

Pre-Chorus
e|------------------|------------------|------------------|------------------|
B|------------------|------------------|------------------|------------------|
G|------------------|-6---7-7---7------|-6---7-7---7------|------------------|
D|-----------3------|-6---7-7---7------|-6---7-7---7------|-----------3------|
A|-3-----3-4---5-3--|-4---5-5---5------|-4---5-5---5------|-3-----3-4---5-3--|
D|-3---5------------|------------------|------------------|-3---5------------|
   1 & 2 & 3 & 4 &    1 & 2 & 3 & 4 &    1 & 2 & 3 & 4 &    1 & 2 & 3 & 4 &   

e|------------------|------------------|------------------|------------------|
B|------------------|------------------|------------------|------------------|
G|------------------|-6---7-7---7------|-6---7-7---7------|------------------|
D|-5---5-5---5------|-6---7-7---7------|-6---7-7---7------|-----------3------|
A|-5---5-5---5------|-4---5-5---5------|-4---5-5---5------|-3-----3-4---5-3--|
D|-5---5-5---5------|------------------|------------------|-3---5------------|
   1 & 2 & 3 & 4 &    1 & 2 & 3 & 4 &    1 & 2 & 3 & 4 &    1 & 2 & 3 & 4 &   

e|------------------|
B|------------------|
G|------------------|
D|-5----------------|
A|-5----------------|
D|-5----------------|
   1 & 2 & 3 & 4 &   


Chorus 1 and 2
e|------------------|------------------|------------------|------------------|
B|------------------|------------------|------------------|------------------|
G|10----------------|-5---5-5-5-5-5-5--|----/7~-----------|----/7~-----------|
D|/8---8-8-8-8-8-8--|-5---5-5-5-5-5-5--|----/7~-----------|----/7~-----------|
A|/8---8-8-8-8-8-8--|-3---3-3-3-3-3-3--|-0--/5~--3-5-3----|-0--/5~--3-5-3----|
D|/8---8-8-8-8-8-8--|------------------|-0-------3-5-3----|-0-------3-5-3----|
   1 & 2 & 3 & 4 &    1 & 2 & 3 & 4 &    1 & 2 & 3 & 4 &    1 & 2 & 3 & 4 &   

e|------------------|------------------|------------------|------------------|
B|------------------|------------------|------------------|------------------|
G|10----------------|-5---5-5-5-5-5-5--|----/7~-----------|----/7~-----------|
D|/8---8-8-8-8-8-8--|-5---5-5-5-5-5-5--|----/7~-----------|----/7~-----------|
A|/8---8-8-8-8-8-8--|-3---3-3-3-3-3-3--|-0--/5~--3-5-3----|-0--/5~--3-5-3----|
D|/8---8-8-8-8-8-8--|------------------|-0-------3-5-3----|-0-------3-5-3----|
   1 & 2 & 3 & 4 &    1 & 2 & 3 & 4 &    1 & 2 & 3 & 4 &    1 & 2 & 3 & 4 &   

e|------------------|------------------|
B|------------------|------------------|
G|10----------------|-5---5-5-5-5-5-5--|
D|/8---8-8-8-8-8-8--|-5---5-5-5-5-5-5--|
A|/8---8-8-8-8-8-8--|-3---3-3-3-3-3-3--|
D|/8---8-8-8-8-8-8--|------------------|
   1 & 2 & 3 & 4 &    1 & 2 & 3 & 4 &   


Bridge (with Filler)
e|------------------|------------------|------------------|------------------|
B|------------------|------------------|------------------|------------------|
G|------------------|------------------|------------------|------------------|
D|-0----------------|------------------|------------------|------------------|
A|-0----------------|------------------|------------------|------------------|
D|-0----------------|------------------|------------------|------------------|
   1 & 2 & 3 & 4 &    1 & 2 & 3 & 4 &    1 & 2 & 3 & 4 &    1 & 2 & 3 & 4 &   

e|------------------|------------------|------------------|------------------|
B|------------------|------------------|------------------|------------------|
G|----/7~-----------|----/7~-----------|----/7~-----------|----/7~-----------|
D|----/7~-----------|----/7~-----------|----/7~-----------|----/7~-----------|
A|-0--/5~--3-5-3----|-0--/5~--3-5-3----|-0--/5~--3-5-3----|-0--/5~--3-5-3----|
D|-0-------3-5-3----|-0-------3-5-3----|-0-------3-5-3----|-0-------3-5-3----|
   1 & 2 & 3 & 4 &    1 & 2 & 3 & 4 &    1 & 2 & 3 & 4 &    1 & 2 & 3 & 4 &   

e|------------------|------------------|------------------|------------------|
B|------------------|------------------|------------------|------------------|
G|----/7~-----------|----/7~-----------|----/7~-----------|----/7~-----------|
D|----/7~-----------|----/7~-----------|----/7~-----------|----/7~-----------|
A|-0--/5~--3-5-3----|-0--/5~--3-5-3----|-0--/5~--3-5-3----|-0--/5---3---3----|
D|-0-------3-5-3----|-0-------3-5-3----|-0-------3-5-3----|-0-------3---3----|
   1 & 2 & 3 & 4 &    1 & 2 & 3 & 4 &    1 & 2 & 3 & 4 &    1 & 2 & 3 & 4 &   


Chorus 3
e|------------------|------------------|------------------|------------------|
B|------------------|------------------|------------------|------------------|
G|10----------------|-5---5-5-5-5-5-5--|----/7~-----------|----/7~-----------|
D|/8---8-8-8-8-8-8--|-5---5-5-5-5-5-5--|----/7~-----------|----/7~-----------|
A|/8---8-8-8-8-8-8--|-3---3-3-3-3-3-3--|-0--/5~--3-5-3----|-0--/5~--3-5-3----|
D|/8---8-8-8-8-8-8--|------------------|-0-------3-5-3----|-0-------3-5-3----|
   1 & 2 & 3 & 4 &    1 & 2 & 3 & 4 &    1 & 2 & 3 & 4 &    1 & 2 & 3 & 4 &   

e|------------------|------------------|------------------|------------------|
B|------------------|------------------|------------------|------------------|
G|10----------------|-5---5-5-5-5-5-5--|----/7~-----------|----/7~-----------|
D|/8---8-8-8-8-8-8--|-5---5-5-5-5-5-5--|----/7~-----------|----/7~-----------|
A|/8---8-8-8-8-8-8--|-3---3-3-3-3-3-3--|-0--/5~--3-5-3----|-0--/5~--3-5-3----|
D|/8---8-8-8-8-8-8--|------------------|-0-------3-5-3----|-0-------3-5-3----|
   1 & 2 & 3 & 4 &    1 & 2 & 3 & 4 &    1 & 2 & 3 & 4 &    1 & 2 & 3 & 4 &   

e|------------------|------------------|------------------|------------------|
B|------------------|------------------|------------------|------------------|
G|10----------------|-5---5-5-5-5-5-5--|----/7~-----------|----/7~-----------|
D|/8---8-8-8-8-8-8--|-5---5-5-5-5-5-5--|----/7~-----------|----/7~-----------|
A|/8---8-8-8-8-8-8--|-3---3-3-3-3-3-3--|-0--/5~--3-5-3----|-0--/5~--3-5-3----|
D|/8---8-8-8-8-8-8--|------------------|-0-------3-5-3----|-0-------3-5-3----|
   1 & 2 & 3 & 4 &    1 & 2 & 3 & 4 &    1 & 2 & 3 & 4 &    1 & 2 & 3 & 4 &   

e|------------------|------------------|------------------|------------------|
B|------------------|------------------|------------------|------------------|
G|10----------------|-5---5-5-5-5-5-5--|----/7~-----------|----/7~-----------|
D|/8---8-8-8-8-8-8--|-5---5-5-5-5-5-5--|----/7~-----------|----/7~-----------|
A|/8---8-8-8-8-8-8--|-3---3-3-3-3-3-3--|-0--/5~--3-5-3----|-0--/5~--3-5-3----|
D|/8---8-8-8-8-8-8--|------------------|-0-------3-5-3----|-0-------3-5-3----|
   1 & 2 & 3 & 4 &    1 & 2 & 3 & 4 &    1 & 2 & 3 & 4 &    1 & 2 & 3 & 4 &   

e|------------------|------------------|------------------|------------------|
B|------------------|------------------|------------------|------------------|
G|----/7~-----------|----/7~-----------|----/7~-----------|----/7~-----------|
D|----/7~-----------|----/7~-----------|----/7~-----------|----/7~-----------|
A|-0--/5~--3-5-3----|-0--/5~--3-5-3----|-0--/5~--3-5-3----|-0--/5~--3-5-3----|
D|-0-------3-5-3----|-0-------3-5-3----|-0-------3-5-3----|-0-------3-5-3----|
   1 & 2 & 3 & 4 &    1 & 2 & 3 & 4 &    1 & 2 & 3 & 4 &    1 & 2 & 3 & 4 &   

e|------------------|------------------|------------------|
B|------------------|------------------|------------------|
G|----/7~-----------|----/7~-----------|------------------|
D|----/7~-----------|----/7~-----------|-0----------------|
A|-0--/5~--3-5-3----|-0--/5~--3-5-3----|-0----------------|
D|-0-------3-5-3----|-0-------3-5-3----|-0----------------|
   1 & 2 & 3 & 4 &    1 & 2 & 3 & 4 &    1 & 2 & 3 & 4 &   


Lyrics:

Hey you
Someone said you were lost out there
In the grip
Tryin to strangle a soul down here
In the meantime
Are you ever gonna set us free
Hey you
Will we ever get out of here?

Are you ever gonna surrender?
Do you even care?
Was some talk about a sweet submission
It wasnt even there

All in the suit that you wear
When youre lookin for something
Its in the suit that you wear
When youre hiding from someone
All in the suit that you wear
When you wear it

Hey you
You keep walking a razor
On the edge
You cut your feet when youre standing there
In the meantime
Theres always someone to set you free
Hey you
Will you ever get out of there

Are you ever gonna surrender?
Do you even care?
Was some talk about a sweet submission
It wasnt even there

All in the suit that you wear
When youre lookin for somethin
Its in the suit that you wear
When youre hiding from someone
All in the suit that you wear
When you wear it

(The suit that you wear)
(The suit that you wear)
(The suit that you wear)
(The suit that you wear)
(The suit that you wear)
(The suit that you wear)
(The suit that you wear)
(The suit that you wear)

All in the suit that you wear
When youre lookin for somethin
Its in the suit that you wear
When youre hiding from someone
All in the suit that you wear
When you wear it
All in the suit that you wear
When you wear it
All in the suit that you wear
When you wear it
All in the suit that you wear



Please send any questions, comments or improvements to dtroberts@hotmail.com
Related for All In The Suit That You Wear tab