Song name
# A B C D E F G H I J K L M N O P Q R S T U V W X Y Z

Stone Temple Pilots - Dead Bloated tab

alright this is just going to be an improvement on the other one. and im gonna use 
tuning cause i think it sounds better.

h=hit
\=slide
p=pull off
verse-just figure out how the timing goes
e----------------------------------------------------------------|
B----------------------------------------------------------------|
G----------------------------------------------------------------|
D-0-0--6-5-3-5-3-0-0-6-5-3-5-3-0-0-6-5-3-5-6-5-3-5-6-5-3-5-3-0-3-|
A-0-0--6-5-3-5-3-0-0-6-5-3-5-3-0-0-6-5-3-5-6-5-3-5-6-5-3-5-3-0-3-|
D-0-0--6-5-3-5-3-0-0-6-5-3-5-3-0-0-6-5-3-5-6-5-3-5-6-5-3-5-3-0-3-|
                        let ring ^
Chorus                                            just have it as one chord
e--7-7-7-7------------------------------------        -------------|
B--7-7-7-7----8-8-----------------------------        ---8---------|
G--4-4-4-4----7-7-----------------------------        ---7---------|
D--4-4-4-4--5-5-5--2-0-0-2-0-2-0-2-0-0-2------        ---5---------|
A-----------5------2-0-0-2-0-2-0-2-0-0-2------        ---5---------|
D-----------5------2-0-0-2-0-2-0-2-0-0-2------        ---5---------|
            ^ ^ ^
   to play this easier see side>>>
post-chorus
e---------------------------------------------|
B---------------------------------------------|
G---------------------------------------------|
D--2h4-2h4-2h4-2h4-2-2h4----------------------|
A--2h4-2h4-2h4-2h4-2-2h4----------------------|
D--2h4-2h4-2h4-2h4-2-2h4----------------------|

Bridge
e----------------------------------------------|
B----------------------------------------------|
G-4--------------------------------------------|
D-4-4\7-7p6-4-2-2\5\2-2\5\2--------------------|
A-2-4\7-7p6-4-2-2\5\2-2\5\2--------------------|
D---4\7-7p6-4-2-2\5\2-2\5\2--------------------|
guitar 2 plays this ^ like this

e----------------------------------------------|
B----------------------------------------------|
G--9\12\9--9\12\9------------------------------|
D--9\12\9--9\12\9------------------------------|
A----------------------------------------------|
D----------------------------------------------|
there you go its not the greatest so rate it and leave comments
Tap to rate this tab
# A B C D E F G H I J K L M N O P Q R S T U V W X Y Z