Song name
# A B C D E F G H I J K L M N O P Q R S T U V W X Y Z

Stone Temple Pilots - Core tab

Help us improve GuitareTab! Take a short survey!
This album isn't that hard.

1.Dead & Bloated
2.Sex Type Thing
3.Wicked Garden
4.No Memory
5.Sin
6.Naked Sunday
7.Creep
8.Piece of Pie (don't know)
9.Plush
10.Wet my Bed
11.Crakerman
12.Where the River Goes

1.Dead & Bloated

h=hit
\=slide
p=pull off
verse-just figure out how the timing goes
e----------------------------------------------------------------|
B----------------------------------------------------------------|
G----------------------------------------------------------------|
D-0-0--6-5-3-5-3-0-0-6-5-3-5-3-0-0-6-5-3-5-6-5-3-5-6-5-3-5-3-0-3-|
A-0-0--6-5-3-5-3-0-0-6-5-3-5-3-0-0-6-5-3-5-6-5-3-5-6-5-3-5-3-0-3-|
D-0-0--6-5-3-5-3-0-0-6-5-3-5-3-0-0-6-5-3-5-6-5-3-5-6-5-3-5-3-0-3-|
                        let ring ^
Chorus                                            just have it as one chord
e--7-7-7-7------------------------------------        -------------|
B--7-7-7-7----8-8-----------------------------        ---8---------|
G--4-4-4-4----7-7-----------------------------        ---7---------|
D--4-4-4-4--5-5-5--2-0-0-2-0-2-0-2-0-0-2------        ---5---------|
A-----------5------2-0-0-2-0-2-0-2-0-0-2------        ---5---------|
D-----------5------2-0-0-2-0-2-0-2-0-0-2------        ---5---------|
            ^ ^ ^
   to play this easier see side>>>
post-chorus
e---------------------------------------------|
B---------------------------------------------|
G---------------------------------------------|
D--2h4-2h4-2h4-2h4-2-2h4----------------------|
A--2h4-2h4-2h4-2h4-2-2h4----------------------|
D--2h4-2h4-2h4-2h4-2-2h4----------------------|

Bridge
e----------------------------------------------|
B----------------------------------------------|
G-4--------------------------------------------|
D-4-4\7-7p6-4-2-2\5\2-2\5\2--------------------|
A-2-4\7-7p6-4-2-2\5\2-2\5\2--------------------|
D---4\7-7p6-4-2-2\5\2-2\5\2--------------------|
guitar 2 plays this ^ like this

e----------------------------------------------|
B----------------------------------------------|
G--9\12\9--9\12\9------------------------------|
D--9\12\9--9\12\9------------------------------|
A----------------------------------------------|

2.Sex Type Thing

First off, there's the signature riff of the song.  The best way to play it 
is by keeping your pinky on the 7th fret of the A string the whole time and 
using your ring, middle, and index fingers on the rest of the notes in 
whatever pattern is comfortable for you.  But believe me, the pinky on the 
7th fret creates a cool pedal-tone that sounds really close to the recorded 
version.  Here's the riff: 
E-|---------------------------|| 
B-|---------------------------|| 
G-|---------------------------|| 
D-|---------------------------|| 
A-|---7-7---7---7---7-7-7-7---|| 
E-|-0-7-7-0-6-0-5-0-3-3-5-3-0-|| 

Now, there's also a second guitar part played at the same time as the 
signature riff.  If you listen close you can hear it.  It sounds quite a 
bit like the following: 
E-|-----0-------0--------0-------0---|| 
B-|---0---0---0---0----0---0---0---0-|| 
G-|-4-------3--------2-------0-------|| 
D-|----------------------------------|| 
A-|----------------------------------|| 
E-|----------------------------------|| 

Then, when the verses come in, there's this simple, 2 chord riff.  (If ya' 
wanna get technical, I think the chords are F#5/E and F#5.)  I'm not very 
good at writing it out "in rhythm" so just listen to the song and you'll 
get the gist of it: 
E-|----------------|------------------|------------------------|| 
B-|----------------|------------------|------------------------|| 
G-|----------------|------------------|------------------------|| 
D-|-4-4--4-4-x-x-x-|-x-4-4-4-4--4-x-4-|-(4)--4-4--4--4--x--x-x-|| 
A-|-4-4--4-4-x-x-x-|-x-4-4-4-4--4-x-4-|-(4)--4-4--4--4--x--x-x-|| 
E-|-0-2--0-2-x-x-x-|-x-0-2-2-0--2-x-0-|-(0)--2-2--0--2--x--x-x-|| 

Ah, but there's ALSO that cool ascending and descending harmonic thing, 
right?  Right.  Well, all you gotta do is lightly touch the E string at 
about the 3rd fret and pick 4 times (in rhythm) while gradually moving 
your finger toward the 1st fret.  That's the ascending harmonic part; for 
the descending, just reverse your direction. 
   Ascending:         DEscending: 
E-|-----------------||-----------------|| 
B-|-----------------||-----------------|| 
G-|-----------------||-----------------|| 
D-|-----------------||-----------------|| 
A-|-----------------||-----------------|| 
E-|-*3*-*2*-*2*-*1*-||-*1*-*1*-*2*-*3*-|| 
    (natural harm.)    (natural harm.) 

Then, for the "chorus" ("I know you want what's on my mind..." etc.) it's 
just standard power chords (5th's).  Here's how to finger them: 
    B   A  D/A 
E-|---|---|---| 
B-|---|---|-3-| 
G-|-4-|-2-|-2-| 
D-|-4-|-2-|-0-| 
A-|-2-|-0-|-0-| 
E-|---|---|---| 

And HERE's where they go: 
B      A   D/A            A   B 
I know you want what's on my mind, 
B      A      D/A            A   B 
I know you'll like what's on my mind, 
B      A   D/A        A   B 
I know it eats you up inside, 
B      A    D/A 
I know you know, you know, you know. 


After the second "chorus", you go straight into this nifty riff.  It's a 
simple moving-chord-shape.  I use my middle and ring fingers to do this: 
E-|-0-0-0--0-0-0--0-0-0--0-0-0-0-0-0--0--0---0--0--0--0--0--0--0--0--0--0--0-| 
B-|-3-3-3--5-5-5--7-7-7--9-9-9-9-9-9/11-11--11-11-11-11-11-11-11-11-11-11-11-| 
G-|-3-3-3--5-5-5--7-7-7--9-9-9-9-9-9/11-11--11-11-11-11-11-11-11-11-11-11-11-| 
D-|--------------------------------------------------------------------------| 
A-|--------------------------------------------------------------------------| 
E-|--------------------------------------------------------------------------| 

3.Wicked Garden
Standard tuning.


intro:
     G5    D5   A5
e:----3-------------       at the end of     e:-------------|
B:----3----2--------        the fourth time   B:-------------|
G:----0----3----2---  X4    play this slide   G:----9/14~~~~-|
D:----0----0----2---                          D:----9/14~~~~-|
A:--------------0---                          A:----9/14~~~~-|
E:----3-------------                          E:-------------|

 riff 1 :
  G5 A5
e:-------------------------------------|
B:-------------------------------------|
G:-------------------------------------| many times
D:-5/7-------7-------7-7-------7-----5-|
A:-5/7-------7-------7-7-------7-----5-|
E:-3/5-(5-5)-5-(5-5)-5-5-(5-5)-5-(5)-3-|


	"(5-5)" means you have to palm mute those notes.

 verse riff:
e:-------------------------------|
B:-------------------------------|
G:--------------------------7--6-| X4
D:-5H7-7-7-7-7-7-7--7-7-7---7--7-|
A:-0---0-0-0-0-0-0--0-0-0---0----|
E:-------------------------------|

pre chorus:

riff 1  X4

verse 2:

same as the first

pre chorus again:

same except that when you finish playing riff 1 the fourth
time,
don't go back to G5. go down to F#5, to start the chorus.


chorus:
   F#5        D5           B5
e:-----------------------------------------------------------|
B:------------3----3-3---------------------------------------|
G:------------2----2-2-----4---4-4---4---4-4---4-4---4-4-4---|X2
D:--4---4-----0----0-0-----4---4-4---4---4-4---4-4---4-4-4-4-|
A:--4---4----------------0-2---0-2---2---0-2---0-2---0-2-0-4-|
E:--2---2---0----------------------------------------------2-|

  can  you    see       just like a  child ?


   E7
e:--0--0-0-0-0-0--0--0--0-0-0-0-0--|
B:--0--0-0-0-0-0--0--0--0-0-0-0-0--| many times ,i'm not sure
G:--1--1-1-1-1-1--1--1--1-1-1-1-1--| about the rhythm...
D:--0--0-0-0-0-0--0--0--0-0-0-0-0--|
A:--2--2-2-2-2-2--2--2--2-2-2-2-2--|
E:--0--0-0-0-0-0--0--0--0-0-0-0-0--|
  alive   ehay  ehay  ehay ehay......


    Then there is this heavy part:
    G5    F#5          A5
e:---------------------------------------------------------------
B:---------------------------------------------------------------
G:---------------------------------------------------------------
D:--5---5-4---5---4-5---7--7------4-5---5-4---5---4-5---7--7--xx-
A:--5---5-4---5---4-5---7--7------4-5---5-4---5---4-5------------
7--7--xx---------------------------------------------------------
E:--3---3-2---3---2-3---5--5----0-2-3---3-2---3---2-3---5--5--xx-

 burn,                      burn       burn............
      (burn, burn,burn, )


riff 1


Verse 3:

pre chorus:

chorus:

heavy part:


and finally play the intro ....    and that's it.

4.No Memory

normal tuning (low to hi EADGbe)

e|------------------------------------------------------------
b|--------0h1------------1--------------2h3-------------------
G|------2-----2--------0---0---------4------4---------4-------
D|----2----------2---2--------2---4-----------------4----4----
A|--0--------------3------------2----------------5---------5--
E|---------------------------------------------3--------------

e|----------------------------------------------------
b|--------------------------------------------3--1--0-
G|--------2-------------7--------------0------0--2--0-
D|------2---2---------7---7----------2--------2--0--2-
A|----3-------3----8--------8------2----------0--0--2-
E|--1------------6--------------0-------------------0-

and repeat as many times as required or desired. have a wonderful day. ^_^

5.Sin

I have the intro verse and chorus and second interlude but I
could not figure out the first interlude I guess you can use the cords in
the intro for the first interlude.  Also,  I think it sounds better when you
strum it to the far right of the guitar.

-|-0------0--0-0-0-----0--0-----------0------0--0-0-0-----0--0-|-------|------|
-|-0--0-0-0--0-0-0--0--0--0--------0--0--0-0-0--0-0-0--0--0--0-|-------|------|
-|-3--3-3-3--3-3-3--3--3--1--------3--3--3-3-3--3-3-3--3--3--1-|-------|------|
-|-2-------------------2--2--------2--2-------------------2--2-|-------|------|
-|-2----------------------2--------2--2----------------------2-|-9-\-2-|------|
-|-0-------------------------------0--0------------------------|-------|------|
   intro     v ^ v  ^  v  ^        v  v  v ^ v

-|---------------------------|------------------------------------------------|
-|-0-0-0-0--x----------------|------------------------------------------------|
-|-3-3-3-3--x-1-1-1-1--x-1-1-|------------------------------------------------|
-|-2-2-2-2--x-2-2-2-2--x-2-2-|------------------------------------------------|
-|-2-2-2-2--x-2-2-2-2--x-2-2-|------------------------------------------------|
-|-0-0-0-0--x-0-0-0-0--x-0-0-|------------------------------------------------|
   verse    ^ v ^ v ^  ^ v ^

-|--------------------------------|-------------------------------------------|
-|------0--0--0-0--0--0-----------|-------------------------------------------|
-|----4-2--2--2-2--1--1-4-----4---|-------------------------------------------|
-|-5--5-2--2--2-2--2--2-5--5--5-5-|-------------------------------------------|
-|-5--5-0--0--0-0--2--2-5--5--5-5-|-------------------------------------------|
-|-3--3-0--0--0-0--0--0-3--3--3-3-|-------------------------------------------|
 chor v ^  ^  v ^  v  v ^  ^  v ^

-|-3-|-3---3--3-------3------3---3--3-------3-------3----5-5-5-5-5--3-3--3-3--|
-|-3-|---3-3----3---3-3-3------3-3----3---3-3-3-------3--0-1-0-5------3----3--|
-|-0-|------------0-------0-------------0-------0-----------------------------|
-|---|------------------------------------------------------------------------|
-|---|------------------------------------------------------------------------|
-|---|------------------------------------------------------------------------|
      sec inter              ^ v ^  ^ v ^ v ^ v ^   ^ v  v v v v ^  ^ v

-3-3---3-3-----|----------|---------------------------------------------------|
---3---3---3---|----------|---------------------------------------------------|
-----0-------0-|----------|---------------------------------------------------|
---------------|----------|---------------------------------------------------|
---------------|----------|---------------------------------------------------|
---------------|----------|---------------------------------------------------|
                 solo

6.Naked Sunday

(with WAH)
     Aflat           C        Aflat           C7
E-|-----------------------------------------------|
B-|--4--x-4--x-4-----8~~~~----4--x-4--x-4-----8~~~|
G-|--5--x-5--x-5-----9~~~~----5--x-5--x-5-----9~~~|
D-|--6--x-6--x-6-----10~~~----6--x-6--x-6-----8~~~|
A-|--6--x-6--x-6-----10~~~----6--x-6--x-6-----10~~|
E-|--4--x-4--x-4-----8~~~~----4--x-4--x-4-----8~~~|

7.Creep

Gtr I (E A D G B E) - 'Steel String Acoustic'
Gtr II (E A D G B E) - 'Clean Electric'
Gtr III, IV (E A D G B E) - 'Dist electric'
Gtr V (E A D G B E) - 'Clean Electric w/chorus and delay'

Intro
  Q=52
 4/4
  Gtr I
  E E E S S S S E   E S S    E E E. S S S E +S  S S S
|-0---0---0---2-2---2-2---|------3--3-----3-(3)-3-3-3-|
|-1---1---1---0-0---0-0-x-|------3--3-----3-(3)-3-3-3-|
|-0---0---0---2-2---2-2-x-|------0--0---0-0-(0)-0-0-0-|
|-2-2---2-----1-1---1-1-x-|------2--2---2-2-(2)-2-2-2-|
|-3-3---------2-2---2-2---|--2---2--2---2-2-(2)-2-2-2-|
|-------------------------|--0-0-0--0---0-0-(0)-0-0-0-|
|
| Gtr II
| E E E E   S S S S Q        W
|-------------------2-----|-!0------------------------|
|-------1---------0-------|-!0------------------------|
|-----0---------2---------|-!0------------------------|
|---2---------1-----------|-!2------------------------|
|-3---------2-------------|-!2------------------------|
|-------------------------|-!0------------------------|


   E E E. S S S E +S  S S S
|--3---3--3-----3-(3)---3-0--|
|--3---3--3-----3-(3)---3-0--|
|--0---0--0-0---0-(0)---0-0--|
|--2-2-2--2-----2-(2)---2-0--|
|--2-2-2--------2-(2)---2----|
|--0-0-0------0-0-(0)-0-0----|
|
|  W
|-!0-------------------------|
|-!0-------------------------|
|-!0-------------------------|
|-!2-------------------------|
|-!2-------------------------|
|-!0-------------------------|


                                             Verses
                       |-3--|
  E E E S S S S E   E +S  S S    W            E E E S S S S E +S  S S T T
|-0---0-0-0---2-2---2-(2)-0---|--3--------||------3---------------3-3-----|
|-1---1-1-1---0-0---0-(0)-0---|--3--------||o-----3---3-----0-(0)-3-3-x-x-|
|-0---0-0-0---2-2---2-(2)-----|--0--------||--0---0---0---0-0-(0)-0-0-x-x-|
|-2-2-2---2---1-1---1-(1)-----|--2--------||--2---2---2---2-2-(2)-2-2-x-x-|
|-3-3-3-------2-2---2-(2)-----|--2--------||o-2---2-------2-2-(2)-2-2-----|
|---------------------------0-|--0--------||--0-0-0-0-----0-0-(0)-0-0-----|
|
| E E E E   S S S S Q            W            E E E E   E   E  E    E
|-------------------2---------|-!3--------||------------------------------|
|-------1---------0-0---------|-!3--------||o-----3------------3----------|
|-----0---------2---2---------|-!0--------||----0---0-------0-------0-----|
|---2---------1---------------|-!2--------||--2---------2-----------------|
|-3---------2-----------------|-!2--------||o-----------------------------|
|-----------------------------|-!0--------||------------------------------|
                                           |-play on repeat only

  E E E.   S S S E Q     E S S E S S S S E +S  S S S   E E E S S S S E E S S
|-0---0----------2-2---|-------3---3-----3-(3)-------|-0---0---------2-2-----|
|-1---1--------0-0-0---|-------3---3-----3-(3)---0---|-1---1-1-1---0-0-0-0-0-|
|-0-0-0----0---2-2-2---|-------0-0-0-----0-(0)-0-0---|-0---0-0-0---2-2-2-----|
|-2-2-2----2---1-1-1---|-------2---------2-(2)-2-2---|-2-2-2-2-2---1-1-1-----|
|-3-3-3--------2---2---|-2---2-2-------2-------2-2---|-3-3-3---3---2-2-2-----|
|----------------------|-0-0-0-0-----0---------0-0-0-|-----------------------|
|
| E E E  E   E   E E E   E E   E E   E   E  E    E     E E E E   E   E E E
|----------------------|-----------------------------|-----------------------|
|-----3------------0---|-------3------------3--------|-----3-----------0-----|
|---0----0-------0---0-|---0-----0-------0-------0---|---0---0-------0---0---|
|-2----------4---------|-2-----------2---------------|-2---------4-----------|
|----------------------|-----------------------------|-----------------------|
|----------------------|-----------------------------|-----------------------|


  E E E S S S S E +S  S S S   E E E.   S S S E E S T T
|-----3---3-----3-(3)---0-0-|-0---0--------2-2-2-------|
|-----3---3---3-3-(3)---3-0-|-1-1-1----1---0-0-0-0-0-x-|
|-----0---0-0-0-0-(0)---0-0-|-0-0-0----0---2-2-2---0-x-|
|-----2-2-2---2-2-(2)-------|-2-2-2----2---1-1-1---1-x-|
|-2---2-2-2---2-------------|-3-3-3----3---2-2-2-------|
|-0-0-0---0---0-------0-----|--------------------------|
|
| E E E E   E   E  E    E     E E E  E   E   E E E
|---------------------------|--------------------------|
|-----3------------3--------|-----3------------0-------|
|---0---0-------0-------0---|---0----0-------0---0-----|
|-2---------2---------------|-2----------4-------------|
|---------------------------|--------------------------|
|---------------------------|--------------------------|


  E E E.   S S S E +S  S S S
|-----3----3-----3-(3)---0-0--|
|-----3----3-----3-(3)---0-0--|
|-----0----0-----0-(0)---0-0--|
|-----2----2-----2-(2)---2-0--|
|-2---2----2-----2-(2)-2-2----|
|-0-0-0----0---0-0-(0)-0-0----|
|
| E E E  E   E   E  E    E
|-----------------------------|
|-----3-------------3---------|
|---0----0-------0-------0----|
|-2----------2----------------|
|-----------------------------|
|-----------------------------|


  E E E S S S S E E S T T   E.   S E.   S S S E   +S  S S S
|-----0-------2-2-2-------|--------3----3-----3---(3)-----3-|
|---1-1-------0-0-0-0-0-x-|--------3----3-----3---(3)-----3-|
|-0-0-0-------2-2-2---0-x-|--------0----0-----0---(0)-0---0-|
|-2-2-2-2-0---1-1-1---1-x-|--------2----2-----2---(2)-2---2-|
|-3-3-3-3-0---2-2-2-------|------2-2----------2---(2)-2---2-|
|-------------------------|-0----0-0--------0---------0-0-0-|
|
| E E E E   E   E E E       E  E   E  E   S S S S  S  S S S
|-------------------------|---------------------------------|
|-----3-----------0-------|--------3----------3---------3---|
|---0---0-------0---0-----|----0------0-----0---------0---0-|
|-2---------4-------------|-2-------------4-----4s=5--------|
|-------------------------|---------------------------------|
|-------------------------|---------------------------------|


   Q  E. S +S  S E +S  S S S
|-----3--3-(3)---------3-3---||
|-----3--3-(3)---3-(3)-3-3---||
|-----0--0-(0)---0-(0)-0-0-0-||
|-----2--------2-2-(2)-2-2-0-||
|--2--2--------2-------2-2---||
|--0--0--------0-------0-0---||
|
|  W
|-^0-------------------------||
|-^3-------------------------||
|-^0-------------------------||
|-^5-------------------------||
|----------------------------||
|----------------------------||


 Pre-Chorus
  $
  E E E  S S S S E E S S    E. S E S S S S E +S  S S S   E E E. S S S E Q
|-3---3----3---0---0-----|-------3---3-----3-(3)---3-3-|-3---3--3---0---0---|
|-3---3----3---0---0---x-|-------3---3-----3-(3)---3-3-|-3---3--3---0---0---|
|-0-0-0----0---2-2-2---x-|-------0-0-0-----0-(0)---0-0-|-0-0-0--0---2-2-2---|
|-0-0-0----0---2-2-2-2-x-|--2--2-2-2-2-----2-(2)---2---|-0-0-0--0---2-2-2---|
|-2-2-2----2---0-0-0-0---|--2--2-2-2-2---2-2-(2)-2-2---|-2-2-2--2---0-0-0---|
|-3-3-3--3-0-3-----------|--0--0-0---0---0-0-(0)-0-0---|-3-3-3--3-----------|
|
| Q   E.   S S S E Q        W                            Q   E. S S S E Q
|-3---3----3---0-0-0-----|-!0--------------------------|-3---3--3---0-0-0---|
|-3---3----3---0-0-0-----|-!0--------------------------|-3---3--3---0-0-0---|
|-0---0----0---2-2-2-----|-!0--------------------------|-0---0--0---2-2-2---|
|-0---0----0---2-2-2-----|-!2--------------------------|-0---0--0---2-2-2---|
|-2---2----2---0-0-0-----|-!2--------------------------|-2---2--2---0-0-0---|
|-3---3----3-------------|-!0--------------------------|-3---3--3-----------|


   E. S S S S S +Q   +S  S S S
|-------3-3---3-(3)--(3)---3-3-|
|-------3-3---3-(3)--(3)---3-3-|
|-------0-0---0-(0)--(0)---0-0-|
|-------2-----2-(2)--(2)-2-2-0-|
|--2----------2-(2)--(2)-2-2---|
|--0--0-----0-0-(0)--(0)-0-0---|
|
|  W
|-!0---------------------------|
|-!0---------------------------|
|-!0---------------------------|
|-!2---------------------------|
|-!2---------------------------|
|-!0---------------------------|


  E E E. S S S E E. S     Q  E. S S S E  Q
|-3---3--3---0---0--0---|-0--0--0---2-2--2-------||
|-3---3--3---0---0--0---|-1--1--1---3-3--3-------||
|-0-0-0--0---2-2-2--2---|-0--0--0---2-2--2-------||
|-0-0-0--0---2-2-2--2---|-2--2--2---0-0--0-------||
|-2-2-2--2---0-0-0--0---|-3--3--3---0-0--0-------||
|-3-3-3--3--------------|------------------------||
|
|                       Gtr III
| Q   E. S S S E E. T T   H       Q      E    E
|-3---3--3---0-0-0------|------------------------||
|-3---3--3---0-0-0--0-0-|------------------------||
|-0---0--0---2-2-2--2-2-|------------------------||
|-0---0--0---2-2-2--2-2-|------------------------||
|-2---2--2---0-0-0--0-0-|------------------------||
|-3---3--3--------------|---------------/x\-/12\-||


 Chorus
  Gtr IV
  S S S S S S S S S  S S S S S S S
|----------------------------------|
|----------------------------------|
|----------------------------------|
|-----0-------0--------0-------0-2-|
|---2-------0--------0-----0-2-----|
|-0-----0-2-----2-3------3---------|
|
| Gtr III
| Q       Q       E.     S S S S S
|----------------------------------|
|----------------------------------|
|----------------------------------|
|------------------------------0-2-|
|--------------------------0-2-----|
|-0-------2-------3------3---------|
|-Riff 1

                               ~
  S S S S S S S S S  S S S S S E   S S S S S S S S S  S S S S S S S
|--------------------------------|-----------------------------------|
|--------------------------------|-----------------------------------|
|--------------------------------|-----------------------------------|
|-----0-------0--------0---------|-----0-------0--------0-------0-2--|
|---2-------0--------2-----0-1-2-|---2-------0--------2-----0-2------|
|-0-----0-2-----2-3------3-------|-0-----0-2-----2-3------3----------|
|
|                              ~
| Q       Q       E.     S S S E
|--------------------------------|
|--------------------------------|
|--------------------------------| w/Riff 1 x3
|--------------------------------|
|--------------------------0-1-2-|
|-0-------2-------3------3-------|
                      end Riff 1-|

                               ~
  S S S S S S S S S  S S S S S E   S S S S S S S S S  S S S S S S S
|--------------------------------|----------------------------------|
|--------------------------------|----------------------------------|
|--------------------------------|----------------------------------|
|-----0-------0--------0---------|-----0-------0--------0-------0-2-|
|---2-------0--------2-----0-1-2-|---2-------0--------2-----0-2-----|
|-0-----0-2-----2-3------3-------|-0-----0-2-----2-3------3---------|


                               ~
  S S S S S S S S S  S S S S S E
|----------------------------------|
|----------------------------------|
|----------------------------------|
|-----0-------0--------0-----------|
|---2-------0--------2-----0-1-2---|
|-0-----0-2-----2-3------3---------|


                            To Coda
                                                                  ~
  S S S S S S S S S  S S S S S S S   S S S S S S S S S  S S S S S E
|----------------------------------|--------------------------------|
|----------------------------------|--------------------------------|
|----------------------------------|--------------------------------|
|-----0-------0--------0-------0-2-|-----0-------0--------0---------|
|---2-------0--------2-----0-2-----|---2-------0--------2-----0-1-2-|
|-0-----0-2-----2-3------3---------|-0-----0-2-----2-3------3-------|



 1.
 Gtr I
   Q  E. S S S E +S  S S S   E E S S S S +H
|-----3--------------3-3-3-|-----3-3-3-3-(3)-----||
|-----3--------------3-3-3-|-----3-3-3-3-(3)----o||
|-----0--------------0-0-0-|-----0-0-0-0-(0)-----||
|-----2--------------2-2-2-|-----2-2-2-2-(2)-----||
|--2--2--2---2-2-(2)-2-2-2-|-2-2-2-2-2-2-(2)----o||
|--0--0--0---0-0-(0)-0-0-0-|-0-0-0-0-0-0-(0)-----||
|
|Gtr V
|  W                         W
|-!0-----------------------|---------------------||
|-!3-----------------------|--------------------o||
|-!0-----------------------|---------------------||
|-!5-----------------------|---------------------||
|--------------------------|--------------------o||
|--------------------------|---------------------||


  2.
                                                           D.S. al Coda
  Gtr I
   W                    W                  W                  W
|-^0-----------------|-^0---------------|-^0---------------|-^0---------||
|-^3-----------------|-^3---------------|-^3---------------|-^3---------||
|-^0-----------------|-^0---------------|-^0---------------|-^0---------||
|-^4-----------------|-^4---------------|-^4---------------|-^4---------||
|-^2-----------------|-^2---------------|-^2---------------|-^2---------||
|-^0-----------------|-^0---------------|-^0---------------|-^0---------||
|
| Gtr V
|  Q  S E S +E  Q.      Q  S E S +H        Q  S E S +H        W
|-----0--------------|------------------|-----0------------|--0---------||
|-------3-3-(3)------|------------------|-------3----------|--3---------||
|--------------------|-------0----------|---------0-(0)----|--0---------||
|---------------5----|-----4---4-(4)----|------------------|--4---------||
|--------------------|------------------|------------------|------------||
|--------------------|------------------|------------------|------------||


  &
  Gtr IV
  S S S S S S S S S  S S S S S E   +W
|--------------------------------|--------*|
|--------------------------------|--------*|
|--------------------------------|--------*|
|-----0-------0--------0---------|--------*|
|---2-------0--------2-----0-1-2-|-(2)----*|
|-0-----0-2-----2-3------3-------|--------*|
|
| Gtr III
| Q       Q       E.     S S S E   +W
|--------------------------------|--------*|
|--------------------------------|--------*|
|--------------------------------|--------*|
|--------------------------------|--------*|
|--------------------------0-1-2-|-(2)----*|
|-0-------2-------3------3-------|--------*|

8.Piece of Pie
Don't Know

9.Plush

Gtr I (E A D G B E) - 'Gtr.I'
Gtr II (E A D G B E) - 'Gtr.II'
Gtr III (E A D G B E) - 'Gtr.III'

   Intro
    Moderately Slow  Q=78
    G5    G/Bb      C5/A  G                G5    Bbm6       C5/A  G/D
   4/4                                                      2/4
    Gtrs I, II
    E E E E +H       E E E E +Q   S S E  3x E E E E +H       E E E E
||--3-3---3-(3)----|-3-3---3-(3)--3-3-3--||-3-3---3-(3)----|-3-3---3-|
||o-3-3---2-(2)----|-1-1---0-(0)--0-1-2-o||-3-3---2-(2)----|-1-1---0-|
||--0-0---3-(3)----|-2-2---0-(0)--0-0-0--||-0-0---3-(3)----|-2-2---0-|
||-----------------|---------------------||----------------|-------0-|
||o----------------|--------------------o||----------------|---------|
||-----------------|---------------------||----------------|---------|


               1st Verse
                G5        D/F#        F             C/E         Ebmaj7/Bb
 4/4
  +W            E E S S S S E E S S S S   E E S S S S E E S S S S
|-(3)--------||-3-3-x-x-x-2-2-2-x-x-x-1-|-1-1-x-x-x-0-0-0-x-x-x-3-|
|-(0)--------||-3-3-x-x-x-3-3-3-x-x-x-1-|-1-1-x-x-x-1-1-1-x-x-x-3-|
|-(0)--------||-0-0-x-x-x-2-2-2-x-x-x-2-|-2-2-x-x-x-0-0-0-x-x-x-3-|
|-(0)--------||-0-0-x-x-x-0-0-0-x-x-x-3-|-3-3-x-x-x-2-2-2-x-x-x-1-|
|------------||-----x-x-x-------x-x-x-3-|-3-3-x-x-x-3-3-3-x-x-x-1-|
|------------||-3-3-x-x-x-2-2-2-x-x-x-1-|-1-1-x-x-x-0-0-0-x-x-x---|


  Ebmaj7/Bb       F5        G5        D/F#        F             C/E         Ebmaj7/Bb
  E E S S S S E E S S S S   E E S S S S E E S S S S   E E S S S S E E S S S S
|-3-3-x-x-x-3-3-3---------|-3-3-x-x-x-2-2-2-x-x-x-1-|-1-1-x-x-x-0-0-0-x-x-x-3--|
|-3-3-x-x-x-3-3-3---------|-3-3-x-x-x-3-3-3-x-x-x-1-|-1-1-x-x-x-1-1-1-x-x-x-3--|
|-3-3-x-x-x-3-3-3---------|-0-0-x-x-x-2-2-2-x-x-x-2-|-2-2-x-x-x-0-0-0-x-x-x-3--|
|-1-1-x-x-x-1-1-1-3-3-3-3-|-0-0-x-x-x-0-0-0-x-x-x-3-|-3-3-x-x-x-2-2-2-x-x-x-1--|
|-1-1-x-x-x-1-1-1-3-3-3-3-|-----x-x-x-------x-x-x-3-|-3-3-x-x-x-3-3-3-x-x-x-1--|
|-----x-x-x-------1-1-1-1-|-3-3-x-x-x-2-2-2-x-x-x-1-|-1-1-x-x-x-0-0-0-x-x-x----|


                            Pre-Chorus
                             D5          G/B   Em7/C
  E E S S S S E E S S S S    E S S S S S S +E  E +S  S S S
|-3-3-x-x-x-3-3-3---------||-------------3-(3)-0-(0)-------|
|-3-3-x-x-x-3-3-3---------||-3---3---3---3-(3)-3-(3)-3-3---|
|-3-3-x-x-x-3-3-3---------||-2-----------0-(0)-0-(0)-0-0h2-|
|-1-1-x-x-x-1-1-1-3-3-3-3-||-0-0---------------------------|
|-1-1-x-x-x-1-1-1-3-3-3-3-||-------3---3-2-(2)-3-(3)-------|
|-----x-x-x-------1-1-1-1-||-------------------------------|


  D5/A        G/B   Em7/C
  E S S S S S S +E  E +S  S S S
|-------------3-(3)-0-(0)--------|
|-3---3---3---3-(3)-3-(3)-3-3----|
|-2-----------0-(0)-0-(0)-0-0h2--|
|-0-0----------------------------|
|-0-----3---3-2-(2)-3-(3)--------|
|--------------------------------|


  D5          G/B   Em7/C
  E S S S S S S +E  E +S  S S S
|-------------3-(3)-0-(0)-------|
|-3---3---3---3-(3)-3-(3)-3-3---|
|-2-----------0-(0)-0-(0)-0-0h2-|
|-0-0---------------------------|
|-------3---3-2-(2)-3-(3)-------|
|-------------------------------|


                                  Chorus
  D5/A        G/B   Em7/C          Ebmaj7/Bb             F
  E S S S S S S +E  E +S  S S S    E E S S S S E E S S S S
|-------------3-(3)-0-(0)-------||-3-3-x-x-x-3-3-3-x-x-x-1--|
|-3---3---3---3-(3)-3-(3)-3-3---||-3-3-x-x-x-3-3-3-x-x-x-1--|
|-2-----------0-(0)-0-(0)-0-0h2-||-3-3-x-x-x-3-3-3-x-x-x-2--|
|-0-0---------------------------||-1-1-x-x-x-1-1-1-x-x-x-3--|
|-0-----3---3-2-(2)-3-(3)-------||-1-1-x-x-x-1-1-1-x-x-x-3--|
|-------------------------------||-----x-x-x-------x-x-x-1--|


  F                     Ebmaj7/Bb                 F
  E E S S S S E E S S S S   E E S S S S E E S S S S
|-1-1-x-x-x-1-1-1-x-x-x-3-|-3-3-x-x-x-3-3-3-x-x-x-1-|
|-1-1-x-x-x-1-1-1-x-x-x-3-|-3-3-x-x-x-3-3-3-x-x-x-1-|
|-2-2-x-x-x-2-2-2-x-x-x-3-|-3-3-x-x-x-3-3-3-x-x-x-2-|
|-3-3-x-x-x-3-3-3-x-x-x-1-|-1-1-x-x-x-1-1-1-x-x-x-3-|
|-3-3-x-x-x-3-3-3-x-x-x-1-|-1-1-x-x-x-1-1-1-x-x-x-3-|
|-1-1-x-x-x-1-1-1-x-x-x---|-----x-x-x-------x-x-x-1-|


  E E S S S S E S S S S S S
|-1-1-x-x-x-1-1-x-x-x-1-1-1-|
|-1-1-x-x-x-1-1-x-x-x-1-1-1-|
|-2-2-x-x-x-2-2-x-x-x-2-2-2-|
|-3-3-x-x-x-3-3-x-x-x-3-3-3-|
|-3-3-x-x-x-3-3-x-x-x-3-3-3-|
|-1-1-x-x-x-1-1-x-x-x-1-1-1-|


  Ebmaj7/Bb             F                         Ebmaj7/Bb                 F
  E E S S S S E E S S S S   E E S S S S E E S S S S   E E S S S S E E S S S S
|-3-3-x-x-x-3-3-3-x-x-x-1-|-1-1-x-x-x-1-1-1-x-x-x-3-|-3-3-x-x-x-3-3-3-x-x-x-1--|
|-3-3-x-x-x-3-3-3-x-x-x-1-|-1-1-x-x-x-1-1-1-x-x-x-3-|-3-3-x-x-x-3-3-3-x-x-x-1--|
|-3-3-x-x-x-3-3-3-x-x-x-2-|-2-2-x-x-x-2-2-2-x-x-x-3-|-3-3-x-x-x-3-3-3-x-x-x-2--|
|-1-1-x-x-x-1-1-1-x-x-x-3-|-3-3-x-x-x-3-3-3-x-x-x-1-|-1-1-x-x-x-1-1-1-x-x-x-3--|
|-1-1-x-x-x-1-1-1-x-x-x-3-|-3-3-x-x-x-3-3-3-x-x-x-1-|-1-1-x-x-x-1-1-1-x-x-x-3--|
|-----x-x-x-------x-x-x-1-|-1-1-x-x-x-1-1-1-x-x-x---|-----x-x-x-------x-x-x-1--|


  F                          G5    Bbm6       C5/A  G
  E E S S S S E E S S S S    E E E E +H       E E E E +Q   S S E
|-1-1-x-x-x-1-1-1-1-1-1-1-||-3-3---3-(3)----|-3-3---3-(3)--3-3-3-|
|-1-1-x-x-x-1-1-1-1-1-1-1-||-3-3---2-(2)----|-1-1---0-(0)--0-1-2-|
|-2-2-x-x-x-2-2-2-2-2-2-2-||-0-0---3-(3)----|-2-2---0-(0)--0-0-0-|
|-3-3-x-x-x-3-3-3-3-3-3-3-||----------------|--------------------|
|-3-3-x-x-x-3-3-3-3-3-3-3-||----------------|--------------------|
|-1-1-x-x-x-1-1-1-1-1-1-1-||----------------|--------------------|


                                          2nd Verse
  G5    Bbm6       C5/A  G/D               G5        D/F#        F
                  2/4       4/4
  E E E E +H       E E E E   +W            E E S S S S E E S S S S
|-3-3---3-(3)----|-3-3---3-|-(3)--------||-3-3-x-x-x-2-2-2-x-x-x-1--|
|-3-3---2-(2)----|-1-1---0-|-(0)--------||-3-3-x-x-x-3-3-3-x-x-x-1--|
|-0-0---3-(3)----|-2-2---0-|-(0)--------||-0-0-x-x-x-2-2-2-x-x-x-2--|
|----------------|-------0-|-(0)--------||-0-0-x-x-x-0-0-0-x-x-x-3--|
|----------------|---------|------------||-----x-x-x-------x-x-x-3--|
|----------------|---------|------------||-3-3-x-x-x-2-2-2-x-x-x-1--|


  F         C/E         Ebmaj7/Bb           F5        G5        D/F#        F
  E E S S S S E E S S S S   E E S S S S E E S S S S   E E S S S S E E S S S S
|-1-1-x-x-x-0-0-0-x-x-x-3-|-3-3-x-x-x-3-3-3---------|-3-3-x-x-x-2-2-2-x-x-x-1--|
|-1-1-x-x-x-1-1-1-x-x-x-3-|-3-3-x-x-x-3-3-3---------|-3-3-x-x-x-3-3-3-x-x-x-1--|
|-2-2-x-x-x-0-0-0-x-x-x-3-|-3-3-x-x-x-3-3-3---------|-0-0-x-x-x-2-2-2-x-x-x-2--|
|-3-3-x-x-x-2-2-2-x-x-x-1-|-1-1-x-x-x-1-1-1-3-3-3-3-|-0-0-x-x-x-0-0-0-x-x-x-3--|
|-3-3-x-x-x-3-3-3-x-x-x-1-|-1-1-x-x-x-1-1-1-3-3-3-3-|-----x-x-x-------x-x-x-3--|
|-1-1-x-x-x-0-0-0-x-x-x---|-----x-x-x-------1-1-1-1-|-3-3-x-x-x-2-2-2-x-x-x-1--|


  F         C/E         Ebmaj7/Bb           F5
  E E S S S S E E S S S S   E E S S S S E E S S S S
|-1-1-x-x-x-0-0-0-x-x-x-3-|-3-3-x-x-x-3-3-3---------||
|-1-1-x-x-x-1-1-1-x-x-x-3-|-3-3-x-x-x-3-3-3---------||
|-2-2-x-x-x-0-0-0-x-x-x-3-|-3-3-x-x-x-3-3-3---------||
|-3-3-x-x-x-2-2-2-x-x-x-1-|-1-1-x-x-x-1-1-1-3-3-3-3-||
|-3-3-x-x-x-3-3-3-x-x-x-1-|-1-1-x-x-x-1-1-1-3-3-3-3-||
|-1-1-x-x-x-0-0-0-x-x-x---|-----x-x-x-------1-1-1-1-||


 Pre-Chorus II
  D5          G/B   Em7/C
  E S S S S S S +E  E +S  S S S
|-------------3-(3)-0-(0)-------|
|-3---3---3---3-(3)-3-(3)-3-3---|
|-2-----------0-(0)-0-(0)-0-0h2-|
|-0-0---------------------------|
|-------3---3-2-(2)-3-(3)-------|
|-------------------------------|


  D5/A        G/B   Em7/C         D5          G/B   Em7/C
  E S S S S S S +E  E +S  S S S   E S S S S S S +E  E +S  S S S
|-------------3-(3)-0-(0)-------|-------------3-(3)-0-(0)-------|
|-3---3---3---3-(3)-3-(3)-3-3---|-3---3---3---3-(3)-3-(3)-3-3---|
|-2-----------0-(0)-0-(0)-0-0h2-|-2-----------0-(0)-0-(0)-0-0h2-|
|-0-0---------------------------|-0-0---------------------------|
|-0-----3---3-2-(2)-3-(3)-------|-------3---3-2-(2)-3-(3)-------|
|-------------------------------|-------------------------------|


  D5/A        G/B   Em7/C
  E S S S S S S +E  E +S  S S S
|-------------3-(3)-0-(0)-------||
|-3---3---3---3-(3)-3-(3)-3-3---||
|-2-----------0-(0)-0-(0)-0-0h2-||
|-0-0---------------------------||
|-0-----3---3-2-(2)-3-(3)-------||
|-------------------------------||


 Chorus II and III
  $
  Ebmaj7/Bb             F                         Ebmaj7/Bb                 F
  E E S S S S E E S S S S   E E S S S S E E S S S S   E E S S S S E E S S S S
|-3-3-x-x-x-3-3-3-x-x-x-1-|-1-1-x-x-x-1-1-1-x-x-x-3-|-3-3-x-x-x-3-3-3-x-x-x-1--|
|-3-3-x-x-x-3-3-3-x-x-x-1-|-1-1-x-x-x-1-1-1-x-x-x-3-|-3-3-x-x-x-3-3-3-x-x-x-1--|
|-3-3-x-x-x-3-3-3-x-x-x-2-|-2-2-x-x-x-2-2-2-x-x-x-3-|-3-3-x-x-x-3-3-3-x-x-x-2--|
|-1-1-x-x-x-1-1-1-x-x-x-3-|-3-3-x-x-x-3-3-3-x-x-x-1-|-1-1-x-x-x-1-1-1-x-x-x-3--|
|-1-1-x-x-x-1-1-1-x-x-x-3-|-3-3-x-x-x-3-3-3-x-x-x-1-|-1-1-x-x-x-1-1-1-x-x-x-3--|
|-----x-x-x-------x-x-x-1-|-1-1-x-x-x-1-1-1-x-x-x---|-----x-x-x-------x-x-x-1--|


  F
  E E S S S S E S S S S S S
|-1-1-x-x-x-1-1-x-x-x-1-1-1-|
|-1-1-x-x-x-1-1-x-x-x-1-1-1-|
|-2-2-x-x-x-2-2-x-x-x-2-2-2-|
|-3-3-x-x-x-3-3-x-x-x-3-3-3-|
|-3-3-x-x-x-3-3-x-x-x-3-3-3-|
|-1-1-x-x-x-1-1-x-x-x-1-1-1-|


  Ebmaj7/Bb             F                         Ebmaj7/Bb
  E E S S S S E E S S S S   E E S S S S E E S S S S
|-3-3-x-x-x-3-3-3-x-x-x-1-|-1-1-x-x-x-1-1-1-x-x-x-3-|
|-3-3-x-x-x-3-3-3-x-x-x-1-|-1-1-x-x-x-1-1-1-x-x-x-3-|
|-3-3-x-x-x-3-3-3-x-x-x-2-|-2-2-x-x-x-2-2-2-x-x-x-3-|
|-1-1-x-x-x-1-1-1-x-x-x-3-|-3-3-x-x-x-3-3-3-x-x-x-1-|
|-1-1-x-x-x-1-1-1-x-x-x-3-|-3-3-x-x-x-3-3-3-x-x-x-1-|
|-----x-x-x-------x-x-x-1-|-1-1-x-x-x-1-1-1-x-x-x---|


  Ebmaj7/Bb             F
  Gtr I
  E E S S S S E E S S S S   E E E. S S S E S S S S
|-3-3-x-x-x-3-3-3-x-x-x-1-|-1-1-1--1-1-1-1-1-1-1-1-||
|-3-3-x-x-x-3-3-3-x-x-x-1-|-1-1-1--1-1-1-1-1-1-1-1-||
|-3-3-x-x-x-3-3-3-x-x-x-2-|-2-2-2--2-2-2-2-2-2-2-2-||
|-1-1-x-x-x-1-1-1-x-x-x-3-|-3-3-3--3-3-3-3-3-3-3-3-||
|-1-1-x-x-x-1-1-1-x-x-x-3-|-3-3-3--3-3-3-3-3-3-3-3-||
|-----x-x-x-------x-x-x-1-|-1-1-1--1-1-1-1-1-1-1-1-||
|
| Gtr II
| E E S S S S E E S S S S   E E E. S S S E S S S S
|-3-3-x-x-x-3-3-3-x-x-x-1-|-1-1-1--1-1-1-1-1-1-1-1-||
|-3-3-x-x-x-3-3-3-x-x-x-1-|-1-1-1--1-1-1-1-1-1-1-1-||
|-3-3-x-x-x-3-3-3-x-x-x-2-|-2-2-2--2-2-2-2-2-2-2-2-||
|-1-1-x-x-x-1-1-1-x-x-x-3-|-3-3-3--3-3-3-3-3-3-3-3-||
|-1-1-x-x-x-1-1-1-x-x-x-3-|-3-3-3--3-3-3-3-3-3-3-3-||
|-----x-x-x-------x-x-x-1-|-1-1-1--1-1-1-1-1-1-1-1-||


 Bridge
  G5              F5
  Gtr III
  S S S S S S S S S S S S S E S
|-------------x-----------x------|
|-------------x-----------x------|
|-------------x-----------x------|
|-------------x-----------x------|
|-5-5-5-5-5---x-5-3-3-3---x-3-3--|
|-3-3-3-3-3---x-3-1-1-1---x-1-1--|
|
| S S S S S S S S S S S S S E S
|--------------------------------|
|-------3-------------3----------|
|-0-2-4---4-2---2---4---4---4-4--|
|-------------5---3---------3-3--|
|--------------------------------|
|--------------------------------|


  C/E           D5Eb5       D5            G5              F5
  S S S S S S S S S S S   S  S  S E       S S S S S S S S S S S S S E S
|-------------x-------------------------|-------------x-----------x-----|
|-------------x-------------------------|-------------x-----------x-----|
|-------------x-------------------------|-------------x-----------x-----|
|-------------x-7-8-8-8---8--7--7-7-----|-------------x-----------x-----|
|-3-3-3-3-3---x-5-6-6-6---6--5--5-5-----|-5-5-5-5-5---x-5-3-3-3---x-3-3-|
|-0-0-0-0-0---x-------------------------|-3-3-3-3-3---x-3-1-1-1---x-1-1-|
|
| S S E   S S E   S S S a S +S  E   a S   S S S S S S S S S S S S S E S
|---------------------------------------|-------------------------------|
|-----1---1-----------1-1s3-(3)-1-------|-------3-------------3---------|
|---0-------0-------0---------------1s2-|-0-2-3---3---3-----3-------3-3-|
|-2-----------2---1---------------------|-----------5---5-3-----3---3-3-|
|---------------------------------------|-------------------------------|
|---------------------------------------|-------------------------------|


  C/E           D5Eb5       D5
  S S S S S S S S S S S   S  S  S E
|-------------x--------------------------|
|-------------x--------------------------|
|-------------x--------------------------|
|-------------x-7-8-8-8---8--7--7-7------|
|-3-3-3-3-3---x-5-6-6-6---6--5--5-5------|
|-0-0-0-0-0---x--------------------------|
|
| S S E   S S E   S S S a S +S  E   a S
|----------------------------------------|
|-----1---1-----------1-1s3-(3)-1--------|
|---0-------0-------0---------------1s2--|
|-2-----------2---1----------------------|
|----------------------------------------|
|----------------------------------------|


  G5              F5
  Gtr II
  S S S S S S S S S S S S S E S
|-------------------------------|
|-------3-------------3---------|
|-0-2-4---4-2---2---4-------4-4-|
|-------------5---3-----3---3-3-|
|-------------------------------|
|-------------------------------|
|
| Gtr III
| S S S S S S S S S S S S S E S
|-------------x-----------x-----|
|-------------x-----------x-----|
|-------------x-----------x-----|
|-------------x-----------x-----|
|-5-5-5-5-5---x-5-3-3-3---x-3-3-|
|-3-3-3-3-3---x-3-1-1-1---x-1-1-|


                               To Coda
  C/E           D5Eb5       D5            G5              F5
  S S E   S S E   S S S a S +S  E   a S   S S S S S S E   S S S S S E S
|---------------------------------------|-------------------------------|
|-----1---1-----------1-1s3-(3)-1-------|-------3-------------3---------|
|---0-------0-------0---------------1s2-|-0-2-3---3---------3-------3-3-|
|-2-----------2---1---------------------|-----------5-5---3-----3---3-3-|
|---------------------------------------|-------------------------------|
|---------------------------------------|-------------------------------|
|
| S S S S S S S S S S S   S  S  S E       S S S S S S S S S S S S S E S
|-------------x-------------------------|-------------x-----------x-----|
|-------------x-------------------------|-------------x-----------x-----|
|-------------x-------------------------|-------------x-----------x-----|
|-------------x-7-8-8-8---8--7--7-7-----|-------------x-----------x-----|
|-3-3-3-3-3---x-5-6-6-6---6--5--5-5-----|-5-5-5-5-5---x-5-3-3-3---x-3-3-|
|-0-0-0-0-0---x-------------------------|-3-3-3-3-3---x-3-1-1-1---x-1-1-|


  C/E           D5Eb5D5      G5    Bbm6       C5/A  G
                            Gtr I
  S S E   S S S S Q  Q       E E E E +H       E E E E +Q   S S E   3x
|-----------------------||---3-3---3-(3)----|-3-3---3-(3)--3-3-3---||
|-----1---1-----1-3--1--||o--3-3---2-(2)----|-1-1---0-(0)---------o||
|---0-------0-----3--2--||---0-0---3-(3)----|-2-2---0-(0)--0-0-0---||
|-2-----------2---------||------------------|----------------------||
|-----------------------||o-----------------|---------------------o||
|-----------------------||------------------|----------------------||
|
|                           Gtr II
| S S S S S S S S Q  Q       E E E E +H       E E E E +Q   S S E   3x
|-------------x---------||---3-3---3-(3)----|-3-3---3-(3)----------||
|-------------x---------||o--3-3---2-(2)----|-1-1---0-(0)--0-1-2--o||
|-------------x---------||---0-0---3-(3)----|-2-2---0-(0)--0-------||
|-------------x-7-8--7--||------------------|----------------------||
|-3-3-3-3-3---x-5-6--5--||o-----------------|---------------------o||
|-0-0-0-0-0---x---------||------------------|----------------------||


                     D.S. al Coda       &
                   C5/A  G/D
 4/4              2/4       4/4
  E E E E +H       E E E E   +W
|-3-3---3-(3)----|-3-3---3-|-(3)--------||
|-3-3---2-(2)----|-1-1---0-|-(0)--------||
|-0-0---3-(3)----|-2-2---0-|-(0)--------||
|----------------|-------0-|-(0)--------||
|----------------|---------|------------||
|----------------|---------|------------||
|
| E E E E +H       E E E E   +W
|-3-3---3-(3)----|-3-3---3-|-(3)--------||
|-3-3---2-(2)----|-1-1---0-|-(0)--------||
|-0-0---3-(3)----|-2-2---0-|-(0)--------||
|----------------|-------0-|-(0)--------||
|----------------|---------|------------||
|----------------|---------|------------||


  G5              F5              C/E           D5Eb5D5
  Gtr III
  S S S S S S S S S S S S S E S   S S S S S S S S Q  Q
|-------------x-----------x-----|-------------x-----------||
|-------------x-----------x-----|-------------x-----------||
|-------------x-----------x-----|-------------x-----------||
|-------------x-----------x-----|-------------x-7-8--7----||
|-5-5-5-5-5---x-5-3-3-3---x-3-3-|-3-3-3-3-3---x-5-6--5----||
|-3-3-3-3-3---x-3-1-1-1---x-1-1-|-0-0-0-0-0---x-----------||
|
| Gtr II
| S S S S S S S S S S S S S E S   S S E   S S S S Q  Q
|-------------------------------|-------------------------||
|-------3-------------3---------|-----1---1-----1-3--1----||
|-0-2-3---3---3-----3-------3-3-|---0-------0-----3--2----||
|-----------5---5-3-----3---3-3-|-2-----------2-----------||
|-------------------------------|-------------------------||
|-------------------------------|-------------------------||


   Outro
    G5    Bbm6       C5/A  G                G5    Bbm6       C5/A  G/D
                                                            2/4       4/4
    Gtrs I, II
    E E E E +H       E E E E +Q   S S E  3x E E E E +H       E E E E   +W
||--3-3---3-(3)----|-3-3---3-(3)--3-3-3--||-3-3---3-(3)----|-3-3---3-|-(3)----*|
||o-3-3---2-(2)----|-1-1---0-(0)--0-1-2-o||-3-3---2-(2)----|-1-1---0-|-(0)----*|
||--0-0---3-(3)----|-2-2---0-(0)--0-0-0--||-0-0---3-(3)----|-2-2---0-|-(0)----*|
||-----------------|---------------------||----------------|-------0-|-(0)----*|
||o----------------|--------------------o||----------------|---------|--------*|
||-----------------|---------------------||----------------|---------|--------*|


Duration Legend
---------------
W - whole; H - half; Q - quarter; E - 8th; S - 16th; T - 32nd; X - 64th; a - acciaccatura
+ - note tied to previous; . - note dotted; .. - note double dotted
Uncapitalized letters represent notes that are staccato (1/2 duration)
Irregular groupings are notated above the duration line
Duration letters will always appear directly above the note/fret number it represents the
duration for.  Duration letters with no fret number below them represent rests.  Multi-
bar rests are notated in the form Wxn, where n is the number of bars to rest for.  Low
melody durations appear below the staff

Tablature Legend
----------------
 h   - hammer-on
 p   - pull-off
 b   - bend
 pb  - pre-bend
 r   - bend release (if no number after the r, then release immediately)
 /\  - slide into or out of (from/to "nowhere")
 s   - legato slide
 S   - shift slide
  - natural harmonic
[n]  - artificial harmonic
n(n) - tapped harmonic
 ~   - vibrato
 tr  - trill
 T   - tap
 TP  - trem. picking
 PM  - palm muting
\n/  - tremolo bar dip; n = amount to dip
 \n  - tremolo bar down
 n/  - tremolo bar up
/n\  - tremolo bar inverted dip
 =   - hold bend; also acts as connecting device for hammers/pulls
 <>  - volume swell (louder/softer)
 x   - on rhythm slash represents muted slash
 o   - on rhythm slash represents single note slash

Misc Legend
-----------
 |  - bar
||  - double bar
||o - repeat start
o|| - repeat end
*|  - double bar (ending)
 :  - bar (freetime)
 $  - Segno
 &  - Coda
Tempo markers -  = BPM(8/16=s8/s16), where s8 = swing 8ths, s16 = swing 16th

10.Wet my Bed

I know there's not much to this song, but hey, a song's a song.
This is only the way I play it, there could be a thousand
different ways of playing it.

use your acoustic to get a better sound and don't let the notes
ring to much.

Here's the riff:

e:--10---3-0------9---3-0------7---3-0-------------------|
B:--10---3-0------9---3-0------7---3-0----------0-0-0----|
G:-------4-2----------4-1----------4-0----------4-4-4----| X4.5
D:----------------------------------------------2-3-4----|
A:-------------------------------------------------------|
E:-------------------------------------------------------|

11.Crakerman

Riff 1 (Intro and Choruses)                                               3x
||------------------|-----------------|-----------------|-----------------||
||------------------|-----------------|-----------------|-----------------||
||*-----------------|-----------------|-----------------|----------------*||
||*-2-4-4-2-4-4-2-4-|-4-2-4-4-2-4-4-2-|-------2---------|--2-------------*||
||--0-2-2-0-2-2-0-2-|-2-0-2-2-0-2-2-0-|-2-4-4-0-4-4-2-4-|4-0-4-4-2-4-4-4--||
||------------------|-----------------|-0-2-2---2-2-0-2-|2---2-2-0-2-2-2--||


>.........................Fill A.......................<
||-----------------|-----------------|-------|--------||
||-----------------|-----------------|-------|v7~~~---||
||-----------------|-----------------|-2~~~--|v8~~~---||
||-2-4-4-2-4-4-2-4-|-4-2-4-4-2-4-4-2-|-2~~~--|v7~~~---||
||-0-2-2-0-2-2-0-2-|-2-0-2-2-0-2-2-0-|-0~~~--|v0~~~---||
||-----------------|-----------------|-------|------9\||


Riff 2 (Verses)                                                           2x
||------------------|-----------------|-----------------|-----------------||
||------------------|-----------------|-----------------|-----------------||
||*-----------------|-----------------|-----------------|----------------*||
||*-------2---------|---2-------------|-------2---------|---2------------*||
||--2-4-4-0-4-4-2-4-|-4-0-4-4-2-4-4-4-|-2-4-4-0-4-4-2-4-|-4-0-4-4-2-4-4-4-||
||--0-2-2---2-2-0-2-|-2---2-2-0-2-2-2-|-0-2-2---2-2-0-2-|-2---2-2-0-2-2-2-||


Riff 3 (Bridge)
||-----------------|-----------------------|-----------------|-------------|
||-------------3-3-|---4b(5)r4---4-----5-5-|-------------3-3-|-------------|
||-------------2-2-|---4b(5)r4-2-4-2/4-4-4-|-------------2-2-|-------------|
||-------2---2-0-0-|-----------------------|-------2---2-0-0-|----0--------|
||-4-4-4-0---0-----|-0---------------------|-4-----0---0-----|------0------|
||-2-2-2-----------|-----------------------|-2---------------|--------5b(7)|

-------------|-----------------------|-------------|-------------||
-----------3-|---4b(5)r4---4-----5-5-|-----------3-|-------------||
-----------2-|---4b(5)r4-2-4-2/4-4-4-|-----------2-|-------------||
-----2-----0-|-----------------------|-----2-----0-|--0-0-0-0----||
-4---0---0---|-0---------------------|-4---0---0---|-------------||
-2-----------|-----------------------|-2-----------|----------12\||

12.Where The River Goes

Tuning: Normal


Intro Solo:
	       hold
e|-XXXXX--------------------------------------------------------------|
B|-XXXXX---15^17(17)v15--12--------------16--------14~~~~~------------|
G|-XXXXX---------------------14^v^16--14----14-----14~~~~~------------|
D|-XXXXX----------------------------------------16--------------------|
A|-XXXXX--------------------------------------------------------------|
E|-XXXXX--------------------------------------------------------------|
				hold       (Bridge)
e|--------------------------------------|-----------------------------|
B|--------------------------15^17(17)\0-|-----------------------------|
G|-------12---14---12---14--------------|-----------------------------|
D|--/14---------------------------------|--7-----------8--------------|
A|--------------------------------------|--7-----------7--------------|
E|--------------------------------------|--5-----------6--------------|

Intro Guitar Rhythem:

e|-----------------------------------------------------------|
B|------------7---------------7---------------7--------------|
G|------------6---------------6---------------6--------------|
D|------------5---------------5---------------5--------------| x2 for
A|------------6---------------6---------------6------------4-| intro
E|----3---0-------0---3---0-------0---3---0-------3--5--3----|

Bridge:

e|-----------------------------------------------------------|
B|-----------------------------------------------------------|
G|-----------------------------------------------------------|
D|--7--------8-----------------------------------------------|
A|--7--------7-----------------------------------------------|
E|--5--------6-----------------------------------------------|

Verse:

e|-------------------------------------------------------|
B|----------8------------8------------8------------------|
G|----------7------------7------------7------------------|  x4 times
D|----------6------------6------------6------------------|  for verse
A|----------7------------7------------7--------------4---|   then:
E|--3--0-------0--3--0------0--3--0------0--3--5--3------|

Chorus:
     				on last time
e|--------------------------|-----------------------------------------|
B|--------------------------|-----------------------------------------|
G|--------------------------|-----------------------------------------|
D|--5/7-xx-7/5-xx-5/7-xx-7--|---7-5-5---------------------------------|x4
A|--5/7-xx-7/5-xx-5/7-xx-7--|---7-5-5---------------------------------|
E|--3/5-xx-5/3-xx-3/5-xx-5--|---5-3-3---------------------------------|

e|---------------------------------------------------------------|
B|----------8-------------8-------------8------------------------|
G|----------7-------------7-------------7------------------------|
D|----------6-------------6-------------6------------------------|
A|----------7-------------7-------------7--------------4---------|
E|--3--0-------0--3--0-------0--3--0-------0--3--5--3------------|

e|---------------|
B|---------------|
G|---------------|
D|---7----xxx-8--| end chorus
A|---7----xxx-7--|
E|---5----xxx-6--|


Repeat verse and chorus then after the end of the 2nd chorus

chorus2:
e|-----------------------------------------------------------------|
B|--5/7----5/7----5/7---7\5-----------5/7----5/7----5/7---8-5------|
G|--5/7----5/7----5/7---7\5-----------5/7----5/7----5/7---7-5------|
D|--5/7-xx-5/7-xx-5/7-x-7\5-(7)(6)(5)-5/7-xx-5/7-xx-5/7-x-7-5------|x2
A|-----------------------------------------------------------------|
E|-----------------------------------------------------------------|

resolve:

e|-----------------------------------------------------------------|
B|----------8-------------8-----------8----------------------------|
G|----------7-------------7-----------7----------------------------|
D|----------6-------------6-----------6----------------------------|
A|----------7-------------7-----------7--------------4-------------|
E|--3--0-------0-3--0-------0-3--0-------0--3--5--3-----0----------|

repeat verse and chorus AGAIN!~!!
until
e|------------------------------|
B|------------------------------|
G|------------------------------|
D|------------------------------|
A|---/7-----\3-----/7-----\3----|
E|------------------------------|

then finish the song, there are little diddles that the guitarist does but hey, this is 
basic stuff, figure the little things out for yourself.

| /  slide up
| \  slide down
| h  hammer-on
| p  pull-off
| ~  vibrato
| +  harmonic
| x  Mute note

Thats it please post comments and rate
Related for Core tab