Song name
# A B C D E F G H I J K L M N O P Q R S T U V W X Y Z

Stone Temple Pilots - Heaven And Hot Rods tab

#----------------------------------PLEASE NOTE----------------------------------#
# This file is the author's own work and represents their interpretation of the #
# song. You may only use this file for private study, scholarship, or research. #
#-------------------------------------------------------------------------------#



#-------------------------------------------------------------------------------#

NOTE: This is NOT my work, just a tab I found on the internet, all credit goes to the tabber shown below.

Stone Temple Pilots Guitar Tablature
Transcribed by Prodigidan (prodigidan@hotmail.com)
"Heaven & Hot Rods"

NOTE: This arranged is for Dropped D and one guitar.

Dropped D Tuning
(heavy distortion)

MAIN RIFF/VERSE

[---------------------------------------------------------------------]
[---------------------------------------------------------------------]
[---------------------------------------------------------------------]
[---------------------------------------------------------------------]
[-7-5-6-7-7-10-11-12-12-7-6-5-5-2-1-0-0-5-6-7-7-2-1-0-0-5-6-7-7-0-7-0-]
[-7-5-6-7-7-10-11-12-12-7-6-5-5-2-1-0-0-5-6-7-7-2-1-0-0-5-6-7-7-0-7-0-]

[-------------------------------------------------------------0---0---]
[-------------------------------------------------------------0---0---]
[-------------------------------------------------------------0---0---]
[---------------------------------------------------------------------]
[-7-5-6-7-7-10-11-12-12-7-6-5-5-2-1-0-0-5-6-7-7-2-1-0-0-5-6-7---------]
[-7-5-6-7-7-10-11-12-12-7-6-5-5-2-1-0-0-5-6-7-7-2-1-0-0-5-6-7---------]

CHORUS

    H
[---|-----------------------------------------------------------------]
[---|---------------------------------------------------------5-5-x-x-]
[-13/\(13)-11-------------------9-8-7-----------7-6-5---------5-5-x-x-]
[-x-|------0--------------------9-8-7-----------7-6-5---------5-5-x-x-]
[-11/\(11)-9--------------------7-6-5-----------5-4-3---------3-3-----]
[-0--------0--------------------7-6-5-----------5-4-3---------3-3-----]

    H
[---|-----------------------------------------------------------------]
[---|---------------------------------------------------5-5-5-5-------]
[-13/\(13)-11-------------------9-8-7-----------7-6-5---5-5-5-5-------]
[-x-|------0--------------------9-8-7-----------7-6-5---5-5-5-5-------]
[-11/\(11)-9--------------------7-6-5-----------5-4-3---3-3-3-3-------]
[-0--------0--------------------7-6-5-----------5-4-3---3-3-3-3-------]

SOLO

   W    W    W      W+H
[--|-|--|----|-------|------------------------------------------------------]
[-8/-|-8/---8/-----10/-----10-8/10-----------10---10-8----------------------]
[----|-----------------------------7---8/9-9----9------7------7-5/7-8\7\5---]
[----|---------------------------------------------------10-7-------------7-]
[----|----------------------------------------------------------------------]
[----|----------------------------------------------------------------------]
pickup                                                           H   P P

             W
[------------|---------]
[------------|---------]
[-7\5---5-7-7/---------]
[-----7----------------]
[----------------------]
[----------------------]

   W      W                                  W
[-8|-----8|----------------------------------|------]
[-8|-----8|----------------------------------|------]
[-7/-----7/-----9\5-7---5---x---7---5---x---7/~~~~~-]
[---------------------------x-----------x-----------]
[---------------------------------------------------]
[---------------------------------------------------]

    W          W                Q (quarter bend)
[---|---15-----|----------------|-------------------]
[-15/--------15/\(15)\13-15---13/-------------------]
[-----------------------------------14---/14~~~~~~~-]
[-----------------------------------0---------------]
[---------------------------------------------------]
[---------------------------------------------------]

INTERLUDE

[-----------------------------------------------------------------]
[---------------------------------6-------6-------6---6-----------]
[---------------------------------5-------5-------7---7-----------]
[---------------------------------7-------7-------5---5-----------]
[-9---9-----------8---8-----------5-------5-------5---5---5-7-----]
[-9---9-----------8---8-----------------------------------5-7-----]


********************
* Tabbed: 10/08/99 *
********************
Tap to rate this tab
# A B C D E F G H I J K L M N O P Q R S T U V W X Y Z