Song name
# A B C D E F G H I J K L M N O P Q R S T U V W X Y Z

Stone - Emotional Playground tab

#----------------------------------PLEASE NOTE--------------------------------#
#This file is the author's own work and represents their interpretation of the#
#song. You may only use this file for private study, scholarship, or research.#
#-----------------------------------------------------------------------------#


STONE : Emotional Playground
(Janne Joutsenniemi - Roope Latvala)


Transcribed and tabbed by Iiro P
Angel-raper@hotmail.com


   F I N N I S H    T H R A S H / S P E E D    M E T A L   B A N D!!
            S           T          O         N          E






tuning: dropped-d tuning down a half step (C# G# C# F# A# D#)



(0:13)
verse 1

  acoustic guitar?
||--------------------------------------------------------------------||
||--------------------------------------------------------------------||
||-7---7--8--5---/12---11--11--8--5---8--7---7--8--5---7--7---7-------||
||-7---7--8--5---/12---11--11--8--5---8--7---7--8--5---7--7---7-------||
||-5---5--6--3---/10---9---9---6--3---6--5---5--6--3---5--5---5-------||
||--------------------------------------------------------------------||
|                                                                      |
|                                                                      |
||--------------------------------------------------------------------||
||--------------------------------------------------------------------||
||--------------------------------------------------------------------||
||--------------------------------------------------------------------||
||--------------------------------------------------------------------||
||-0------------------------------------------------------------------||



(1:02)
chorus

||----------------------------------------------------------------------------||
||----------------------------------------------------------------------------||
||-7---7--10--9--6--7---7---7--7---10--9--4--5---7---7--7---6---3---3--2--2---||
||-7---7--10--9--6--7---7---7--7---10--9--2--3---7---7--7---6---1---3--0--0---||
||-5---5--8---7--4--5---5---5--5---8---7--2--3---5---5--5---4---1---1--0--0---||
||----------------------------------------------------------------------------||
|                                                                              |
|                                                                              |
||----------------------------------------------------------------------------||
||----------------------------------------------------------------------------||
||----------------------------------------------------------------------------||
||----------------------------------------------------------------------------||
||----------------------------------------------------------------------------||
||-0--------------------------------------------------------------------------||



(1:24)

||---------------------------------------------------------------------------------||
||---------------------------------------------------------------------------------||
||-5-5-5-5-5-5-5-7-------5-5-5-7-------4-4-5-7-----------------------------5/7\5---||
||-5-5-5-5-5-5-5-7-------5-5-5-7-------4-4-5-7-----------------3-----------3/5\3---||
||-3-3-3-3-3-3-3-5-------3-3-3-5-------2-2-3-5-------1-1-1-1-0---3-5---------------||
||---------------------------------------------------------------------------------||



(1:38)
verse 2

||--------------------------------------------------------------------||
||--------------------------------------------------------------------||
||-7---7--8--5---/12---11--11--8--5---8--7---7--8--5---7--7---7-------||
||-7---7--8--5---/12---11--11--8--5---8--7---7--8--5---7--7---7-------||
||-5---5--6--3---/10---9---9---6--3---6--5---5--6--3---5--5---5-------||
||--------------------------------------------------------------------||
|                                                                      |
|                                                                      |
||--------------------------------------------------------------------||
||--------------------------------------------------------------------||
||--------------------------------------------------------------------||
||--------------------------------------------------------------------||
||-0-------0-------0-----0---------0-----0-------0-----0--------------||
||-0---0-0-0---0-0-0---0-0---0-00000-0-0-0---0-0-0---0-0-0-0--0000-0--||



(3:08)

|-----------------------------------------------------------------|
|-----------------------------------------------------------------|
|-------------------------------5---------------------------------|
|-------3--4------------5--6--7---------3--4------3--5------------|
|-5--3--------5-3-5--3------------5--3--------5-3-------5--4--3-1-|
|-----------------------------------------------------------------|
|                                                                 |
|-----------------------------------------------------------------|
|-----------------------------------------------------------------|
|-----------------------------------------------------------------|
|-------------------------------5-------------------------------5-|
|-0-----3--4--0---0-----5--6--7---0-----3--4--0---0-----5--6--7---|
|----5----------5----5---------------5----------5----5------------|


|--------------------------------------------------------------------|
|--------------------------------------------------------------------|
|-------------------------------5------------------------------------|
|-------3--4------------5--6--7---------3--4-------------------------|
|-5--3--------5-3-5--3------------5--3--------5-3-5--5---------------|
|--------------------------------------------------------------------|
|                                                                    |
|--------------------------------------------------------------------|
|--------------------------------------------------------------------|
|--------------------------------------------------------------------|
|-------------------------------5------------------------------------|
|-0-----3--4--0---0-----5--6--7---0-----3--4--0---0--0---------------|
|----5----------5----5---------------5----------5-----------\0-------|



Tap to rate this tab
# A B C D E F G H I J K L M N O P Q R S T U V W X Y Z