Song name
# A B C D E F G H I J K L M N O P Q R S T U V W X Y Z

Stone - Finlandia tab

Band:  Stone
Album: No Anaesthesia
Song:  Finlandia Intro (Original Composer: Jean Sibelius)

Copyright (c) 1989 Megamania
Version 1.0 - 31.7.2006

Transcribed By: Ville Nousiainen
Email:  blackened_81@hotmail.com


.  - palm mute           /  - slide up to
\  - slide down to       ~  - vibrato
h  - hammer on           b  - Bend
p  - pull off            Suffixes for bend
t  - tap                 f  - full bend    h - half bend
ph - pinched harmonic    q  - quarter bend t - tap bend
*  - see comment         ^  - Hold bend    r release bend
x  - Stuccatto           ~  - vibrato bend
,  - slight palm mute    () - ghost note, sustained note
"  - tremolo note        <> - Trill

Tuning E A D G B E

|------------------------------------------------------|
|------------------14----------------------------------|
|--13--17--15--17--------17--15--17--13----15-15--17---|
|------------------------------------------------------|
|------------------------------------------------------|
|------------------------------------------------------|

|---------------------------------------------------|
|------------------14-------------------------------|
|-(17)-17--15--17--------17--15--17--13----15--17---|
|---------------------------------------------------|
|---------------------------------------------------|
|---------------------------------------------------|

|----------------------------------------------------------------------------------------|
|-16--16--16--18----13--13--16--16---------14----14--------------------------------------|
|-----------------------------------15-15------------17--15--17----13--13--15----17-17---|
|----------------------------------------------------------------------------------------|
|----------------------------------------------------------------------------------------|
|----------------------------------------------------------------------------------------|

|----------------------------------------------------------------------------------------|
|-16--16--16--18----13--13--16--16---------14----14--------------------------------------|
|-----------------------------------15-15------------17--15--17----13--13--15----13-13---|
|----------------------------------------------------------------------------------------|
|----------------------------------------------------------------------------------------|
|----------------------------------------------------------------------------------------|

|----------------------|
|----------------------|
|-(13)-----------------|
|----------------------|
|--6--------------6"---|
|--4--------------4"---|

END


http://www.metal-archives.com/release.php?id=13655&PHPSESSID=5b38fc16e8e7e0ab587689fc938d6081
Tap to rate this tab
 
# A B C D E F G H I J K L M N O P Q R S T U V W X Y Z