Song name
# A B C D E F G H I J K L M N O P Q R S T U V W X Y Z

Stone - Overtake tab

-------------------------------------------------------------------------------
			     Overtake - Stone
-------------------------------------------------------------------------------
Tabbed by: Satanblaster

Tuning: E standard

Its faaast! Try to look up the song from internet (legally!) to play along and 
get breaks and hits correct.
 Note that tab has couple of errors, not 100% sure of bridge fills.


Intro/Main riff
e|-------------------------------------------------------------------------|
B|-------------------------------------------------------------------------|
G|-------------------------------------------------------------------------|
D|-------------------------------------------5-----------------------------|
A|-------------------------------------------5-----------------------------|
E|-5-0-0-3-0-0-2-0-0-3-0-0-5-0-0-3-0-0-2-0-0-3-----------------------------|

e|-------------------------------------------------------------------------|
B|-------------------------------------------------------------------------|
G|-------------------------------------------------------------------------|
D|-------------------------------------------2-----------------------------|
A|-------------------------------------------2-----------------------------|
E|-5-0-0-3-0-0-2-0-0-3-0-0-5-0-0-3-0-0-2-0-0-0-----------------------------|


Verse (listen to get the open string correct)
e|-------------------------------------------------------------------------|
B|-------------------------------------------------------------------------|
G|-------------------------------------------------------------------------|
D|-----------------------------------------------------------------------9-|
A|-2-----------------------------------5---------------------------------7-|
E|-0-0-0-0-0-0-0-0-0-0-0-0-0-0-0-0-0-0-3-0-0-0-0-0-0-0-0-0-0-0-0-0-0-6-5---|

e|-------------------------------------------------------------------------|
B|-------------------------------------------------------------------------|
G|-------------------------------------------------------------------------|
D|-------------------------------------------------------------------------|
A|-2-----------------------------------5---------------------------8-7-5-3-|
E|-0-0-0-0-0-0-0-0-0-0-0-0-0-0-0-0-0-0-3-0-0-0-0-0-0-0-0-0-0-0-0-0-6-5-3-1-|

Pre-Chorus
e|-------------------------------------------------------------------------|
B|-------------------------------------------------------------------------|
G|-------------------------------------------------------------------------|
D|-------------------------------------------------------------------------|
A|-------2-------5-------4-------3-------2-------5-------4-------3---------|
E|-0-0-0-0-0-0-3-3-0-0-2-2-0-0-1-1-0-0-0-0-0-0-3-3-0-0-2-2-0-0-1-1---------|

Chorus (get the open E right from tape again)
e|-------------------------------------------------------------------------|
B|-------------------------------------------------------------------------|
G|-------------------------------------------------------------------------|
D|-------------------------------------------------------------------------|
A|-2---------5-7-5-7-------------8-7-5-3-----------------------------------|
E|-0-0-0-0-0-3-5-3-5-0-0-0-0-0-0-6-5-3-1-----------------------------------|

Verse again
Pre again

Bridge part 1
e|-------------------------------------------------------------------------------|
B|-------------------------------------------------------------------------------|
G|-------------------------------------------------------------------------------|
D|-------------7~-------------7~-------------------------------------------------|
A|-7-----7-----8~-7-----7-----6~-5^6-7-----7-----8-7-----6~-7-----7----6-5-3-2-1-|
E|-5-5-5-5-5-5----5-5-5-5-5-5--------5-5-5-5-5-5-----7-8----5-5-5-5-5-5----------|



Bridge part 2
e|---------------------------------------------------------------------------|
B|---------------------------------------------------------------------------|
G|--------------------------------------------------10-9-12-10-9-------------|
D|-------9---9---------9---9------------------9------------------------9-9---|
A|-2-----7---7-8-2-----7---7-8----------2-----7-----8--7-10-8--7-2-----7-7-8-|
E|-0-0-0---0---6-0-0-0---0---6-5-3-5-6~-0-0-0---0-0--------------0-0-0--0--6-|

Guitar solos on Am, played over bridge part 1&2

The moshadelic riff
e|-----------------------------------------------------------------------|
B|-----------------------------------------------------------------------|
G|-2-----2---2-2---2-----2---2-2---2-----2---2-2---2-----2----2-2--------|
D|-2-----2---2-2---3-----3---3-3---2-----2---2-2---1-----1----1-1--------|
A|---0-0---0-----0---0-0---0-----0---0-0---0-----0---0-0----0-----0------|
E|-----------------------------------------------------------------------|

Moshadelic part 2
e|-----------------------------------------------------------------------|
B|-----------------------------------------------------------------------|
G|-----------------------------------------------------------------------|
D|-----9---8-8-9\--------------------------------------------------------|
A|-----7---7-7-7\-----8---7-7-8\-----------------------------------------|
E|-0-0---0--------6-6-6-6-6-6-6\-----------------------------------------|

Bridge ending
e|-----------------------------------------------------------------------|
B|-----------------------------------------------------------------------|
G|-----------------------------------------------------------------------|
D|-9-----8-9-----8-9-----8-9---------------------------------------------|
A|-7-8-9-6-7-8-9-6-7-8-9-6-7-8----9~-------------------------------------|
E|---6-7-----6-7-----6-7-----6----7~-------------------------------------|

Intro Riff x2
Chorus x4

Outro

e|-----------------------------------------------------------------------|
B|-----------------------------------------------5-----------------------|
G|-----------------------------------------------4-----------------------|
D|-----------------------7-9------------------8--2-----9/----------------|
A|-8-7-5-3-8-7-5-3-8-7-5-5-7------------------6--2-----7/----------------|
E|-6-5-3-1-6-5-3-1-6-5-3-----0-0-0-0--0-0-0-0----0-----------------------|

There it is, mosh and go!


| ^  trill
| /  slide up
| \  slide down
| h  hammer-on
| p  pull-off
| ~  vibrato
| +  harmonic
| x  Mute note
Tap to rate this tab
 
# A B C D E F G H I J K L M N O P Q R S T U V W X Y Z