Song name
# A B C D E F G H I J K L M N O P Q R S T U V W X Y Z

Stoned Jesus - Stormy Monday tab

Band : Stoned Jesus
Song : Stormy Monday (Intro) 
Album: Seven Thunders Roar
Track: 5

x3 Clean
D------------------------------------------------------| 
A------------------------------------------------------| 
F------------------------------------------------------| 
C------------------------------------------------------| 
G--3h5-5-5-5-5p3-3-3-0-3h5-----------------------------| 
C---------------------------3h5-5-5-5-5p3-3-3-3-0-3h5--| 

                            *Distortion on*
D------------------------------------------------------|
A------------------------------------------------------|
F------------------------------------------------------|
C------------------------------------------------------|
G--3h5-5-5-5-5p3-3-3-0-3h5--3h5-5-5-5-5-5/8-88-88-7-8--|
C---------------------------3h5-5-5-5-5-5/8-88-88-7-8--|


x4 Distorted
D------------------------------------------------------|
A------------------------------------------------------|
F------------------------------------------------------|
C--5/7-7-7-7-7\5-5-5-5-5/7-----------------------------|
G--3/5-5-5-5-5\3-3-3-0-3/5--3h5-5-5-5-5b-3-3-3-0-3h5---|
C---------------------------3h5-5-5-5-5b-3-3-3-0-3h5---|

D---------------------------------------------------------|
A---------------------------------------------------------|
F---------------------------------------------------------|
C--5/7-7-7-7-7\5-5-5-5-5/7--------------------------------|
G--3/5-5-5-5-5\3-3-3-0-3/7--3h5-5-5-5-5/88-88-7-8-10-12\--|
C---------------------------3h5-5-5-5-5/88-88-7-8-10-12\--|

http://www.facebook.com/stonedjesusband
Tap to rate this tab
 
# A B C D E F G H I J K L M N O P Q R S T U V W X Y Z